Song name
# A B C D E F G H I J K L M N O P Q R S T U V W X Y Z

New Found Glory - Stay tab

New Found Glory - Stay

by alwarnecke

Guitar 1 - Standard Tuning
Guitar 2 - Drop D

INTRO

Guitar 1
e|----11----------------------------------------------------------------|
b|-------------------------------------9--11----------------------------|
G|--13------------------------------10--10------------------------------|
D|11-------------------------------8------------------------------------|
A|----------------------------------------------------------------------|
E|----------------------------------------------------------------------|
   . .	 		           . .

Guitar 2
e|----------------------------------------------------------------------|
b|----------------------------------------------------------------------|
G|-6-6-6---------------------------3-3-3-3-3----------------------------|
D|-6-6-6---------------------------3-3-3-3-3----------------------------|
A|-4-4-4---------------------------1-1-1-1-1----------------------------|
D|----------------------------------------------------------------------|
   . .			           . . . .
        1. You say...                        I only hear what I want to
        2. You say...                        I talk slow all the time

Guitar 1
e|------------------------------------------------|-----------------|---|
b|------------------------------------------------|-----------------|---|
G|---------8-----8--------10----10------11----11--|-11111111111111--|---|
D|---------x-----x---------x-----x-------x-----x--|--x-x-x-x-x-x-x--|---|
A|-6-6-6-6-6-6-6-6-8-8-8-8-8-8-8-8-9-9-9-9---9-9--|--9-9-9-9-9-9-9--|---|
E|------------------------------------------------|-----------------|---|
   . . . .   . .   . . . .   . .   . . .     .   ^^second time around^^

Guitar 2
e|------------------------------------------------|-----------------|---|
b|------------------------------------------------|-----------------|---|
G|------------------------------------------------|-----------------|---|
D|-1-1-1-1-1-1-1-1-3-3-3-3-3-3-3-3-4-4-4-4---4-4--|--4-4-4-4-4-4-4--|---|
A|-1-1-1-1-1-1-1-1-3-3-3-3-3-3-3-3-4-4-4-4---4-4--|--4-4-4-4-4-4-4--|---|
D|-1-1-1-1-1-1-1-1-3-3-3-3-3-3-3-3-4-4-4-4---4-4--|--4-4-4-4-4-4-4--|---|
   . . . .   . .   . . . .   . .   . . .     .    ^^second time around^^
            2. So...
(Repeat)

VERSE

Guitar 1
e|------------------------------------------------------------------------|
b|-7-----7-------------------------7-----7--------------------------------|
G|-8-----8-x-x-6-----6-x-x-6---x-x-8-----8-x-x-6-----6-x-x-6---x-x--------|
D|-8-----8-x-x-x-----x-x-x-x---x-x-8-----8-x-x-x-----x-x-x-x---x-x--------|
A|---------x-x-4-----4-x-x-4---x-x---------x-x-4-----4-x-x-4---x-x--------|
E|------------------------------------------------------------------------|

Guitar 2
e|----------------------------------------------------------------------|
b|----------------------------------------------------------------------|
G|-------------6-----6-x-x-6---x-x-------------6-----6-x-x-6---x-x------|
D|-1-----1-x-x-6-----6-x-x-6---x-x-1-----1-x-x-6-----6-x-x-6---x-x------|
A|-1-----1-x-x-4-----4-x-x-4---x-x-1-----1-x-x-4-----4-x-x-4---x-x------|
D|-1-----1-x-x---------------------1-----1-x-x--------------------------|
  1a.  And I thought what I...         And I thought that I don't belong
   b.  And now that I am leaving       Now I know that I... (POST VERSE)
  2a.  Turn the radio on...            And this woman was singin my song
   b.  Lover's in love...              Lover is crying...
   c.  Some of us hover...             Dying since the day....
   d.  This is not that...             But I'm thrown...        (BRIDGE)
  3a.  You said that I was naive...    I thought that I was strong...
   b.  I thought...                    But now I know that..(POST VERSE)
(Repeat)

POST VERSE

Guitar 1
e|----------------------------------------------------------------------|
b|--------------------------------10----10-x-x10----10-x-x10--1010------|
G|11----11-x-x11----11-x-x11---x-x11----11-x-x11----11-x-x11--1111------|
D|-x-----x-x-x-x-----x-x-x-x---x-x11----11-x-x11----11-x-x11--1111------|
A|-9-----9-x-x-9-----9-x-x-9---x-x-9-----9-x-x-9-----9-x-x-9---9-9------|
E|----------------------------------------------------------------------|

Guitar 2
e|----------------------------------------------------------------------|
b|----------------------------------------------------------------------|
G|----------------------------------------------------------------------|
D|-4-----4-x-x-4-----4-x-x-4---x-x-4-----4-x-x-4-----4-x-x-4---4-4------|
A|-4-----4-x-x-4-----4-x-x-4---x-x-4-----4-x-x-4-----4-x-x-4---4-4------|
D|-4-----4-x-x-4-----4-x-x-4---x-x-4-----4-x-x-4-----4-x-x-4---4-4------|
   missed you...                       Yea...                    I

Guitar 1
e|----------------------------------------------------------------------|
b|-7-----7-------------------------7-----7------------------------------|
G|-8-----8-x-x-6-----6-x-x-6---x-x-8-----8-x-x-6-----6-x-x-6---x-x------|
D|-8-----8-x-x-x-----x-x-x-x---x-x-8-----8-x-x-x-----x-x-x-x---x-x------|
A|---------x-x-4-----4-x-x-4---x-x---------x-x-4-----4-x-x-4---x-x------|
E|----------------------------------------------------------------------|

Guitar 2
e|----------------------------------------------------------------------|
b|----------------------------------------------------------------------|
G|-------------6-----6-x-x-6---x-x-------------6-----6-x-x-6---x-x------|
D|-1-----1-x-x-6-----6-x-x-6---x-x-1-----1-x-x-6-----6-x-x-6---x-x------|
A|-1-----1-x-x-4-----4-x-x-4---x-x-1-----1-x-x-4-----4-x-x-4---x-x------|
D|-1-----1-x-x---------------------1-----1-x-x--------------------------|
   missed you.   *After Verse 3b, go to BRIDGE

INTRO 2

Guitar 1
e|----11----------------------------------------------------------------|
b|-------------------------------------9--11----------------------------|
G|--13------------------------------10--10------------------------------|
D|11-------------------------------8------------------------------------|
A|----------------------------------------------------------------------|
E|----------------------------------------------------------------------|
   . .			           . .

Guitar 2
e|----------------------------------------------------------------------|
b|----------------------------------------------------------------------|
G|-6-6-6---------------------------3-3-3-3-3----------------------------|
D|-6-6-6---------------------------3-3-3-3-3----------------------------|
A|-4-4-4---------------------------1-1-1-1-1----------------------------|
D|----------------------------------------------------------------------|
   . .			           . . . .
           You say...                        I only hear what I want to, I

Guitar 1
e|----------------------------------------------------------------------|
b|----------------------------------------------------------------------|
G|-8--------------10--------------11--------------11--------------------|
D|-x-(8x)----------x-(8x)----------x-(8x)----------x-(8x)---------------|
A|-6---------------8---------------9---------------9--------------------|
E|----------------------------------------------------------------------|
   .               .               .         gradually let off palm mute

Guitar 2
e|----------------------------------------------------------------------|
b|----------------------------------------------------------------------|
G|----------------------------------------------------------------------|
D|-1---------------3---------------4------------------------------------|
A|-1-(8x)----------3-(8x)----------4-(16x)------------------------------|
D|-1---------------3---------------4------------------------------------|
   .               .               .
   Don't listen... don't pay...    distance....

Guitar 1
e|----------------------------------------------------------------------|
b|----------------------------------------------------------------------|
G|-8--------------10--------------11------------------------------------|
D|-x-(8x)----------x-(8x)----------x-(16x)------------------------------|
A|-6---------------8---------------9------------------------------------|
E|----------------------------------------------------------------------|
  (no palm mute)

Guitar 2
e|----------------------------------------------------------------------|
b|----------------------------------------------------------------------|
G|----------------------------------------------------------------------|
D|-1---------------3---------------4------------------------------------|
A|-1-(8x)----------3-(8x)----------4-(16x)------------------------------|
D|-1---------------3---------------4------------------------------------|
     Don't understand...           only hearing negative, no no no no

Guitar 1
e|-----
b|-----
g|-11-- ____
D|-x---     |
A|-9---     |
E|-----     |
            |__  Let ring
Guitar 2    |
e|-----     |
b|-----     |
G|----- ____|
D|-4---
A|-4---
D|-4---
   No....   So I
(Back to VERSE)

BRIDGE

Guitar 1
e|----------------------------------------------------------------------|
b|----------------------------------------------------------------------|
G|-8------------------------------\3------------------------------------|
D|-x-(16x)------------------------\x-(16x)------------------------------|
A|-6------------------------------\1------------------------------------|
E|----------------------------------------------------------------------|

Guitar 2
e|----------------------------------------------------------------------|
b|----------------------------------------------------------------------|
G|----------------------------------------------------------------------|
D|-1-------------------------------4------------------------------------|
A|-1-(16x)-------------------------4-(16x)------------------------------|
D|-1-------------------------------4------------------------------------|
1. Thought I'd live forever...     tell me that I'm clever...
2."Caught me cause..."            "give away a keeper..."

Guitar 1
e|----------------------------------------------------------------------|
g|----------------------------------------------------------------------|
G|-----x-x-6-----------x-x-6-------------6-----6-----6-6-6-6-6-6-6------|
D|-----x-x-x-----------x-x-x-------------x-----x-----x-x-x-x-x-x-x------|
A|-4-4-x-x-4---4-4-4-4-x-x-4---4-4-4-4-4-4---4-4-----4-4-4-4-4-4-4------|
E|----------------------------------------------------------------------|
   . .         . . . .         . . . . .     .

Guitar 2
e|----------------------------------------------------------------------|
b|----------------------------------------------------------------------|
G|----------------------------------------------------------------------|
D|-1-1---------1-1-3-3---------3-3-4-4-4-4---4-4-----4-4-4-4-4-4-4------|
A|-1-1---------1-1-3-3---------3-3-4-4-4-4---4-4-----4-4-4-4-4-4-4------|
D|-1-1---------1-1-3-3---------3-3-4-4-4-4---4-4-----4-4-4-4-4-4-4------|
   . .         . . . .         . . . . .     .
1.       Or anywhere       with you...  (VERSE)
2.   Scared to lose...                               and you say...

OUTRO

Guitar 1
e|----11----------------------------------------------------------------|
b|-------------------------------------9--11----------------------------|
G|--13------------------------------10--10------------------------------|
D|11-------------------------------8------------------------------------|
A|----------------------------------------------------------------------|
E|----------------------------------------------------------------------|
   . .			           . .

Guitar 2
e|----------------------------------------------------------------------|
b|----------------------------------------------------------------------|
G|-6-6-6---------------------------3-3-3-3-3----------------------------|
D|-6-6-6---------------------------3-3-3-3-3----------------------------|
A|-4-4-4---------------------------1-1-1-1-1----------------------------|
D|----------------------------------------------------------------------|
   . .			           . . . .
  1.                                           Stay...
  2.       You say...                          I only hear what I want to

Guitar 1
e|-------------------------------|---------------|-----------------------|
b|-------------------------------|---------------|-----------------------|
G|---------8\-------------10\----|------11----11-|-------6-----6---------|
D|---------x\--------------x\----|-------x-----x-|-------x-----x---------|
A|---------6\--------------8\----|-9-9-9-9-9-9-9-|-4-4-4-4-4-4-4---------|
E|-------------------------------|---------------|-----------------------|
                                [1]. . .   . .  [2] . . .   . .
Guitar 2
e|----------------------------------------------------------------------|
b|----------------------------------------------------------------------|
G|----------------------------------------------------------------------|
D|-1---1---1-----1-3---3---3-----3-4-4-4-4-4-4-4------------------------|
A|-1---1---1-----1-3---3---3-----3-4-4-4-4-4-4-4------------------------|
D|-1---1---1-----1-3---3---3-----3-4-4-4-4-4-4-4------------------------|
   .   .           .   .           . . .   . .
(Repeat)
Tap to rate this tab
 
# A B C D E F G H I J K L M N O P Q R S T U V W X Y Z