Song name
# A B C D E F G H I J K L M N O P Q R S T U V W X Y Z

New Found Glory - My Friends Over You tab

Highlighted       Show chord diagrams
New Found Glory
My Friend's Over You
Sticks and Stones
submitted by: paramore_fans@yahoo.com

Chords used:

D     - xx0232
G     - 320033
Em    - 022000
A     - x02220
Bm    - x24432
F#m   - 244222

Intro:

Guitar 1: D--G (x2)

Guitar 2:
e|-----------------------------------------------------------------|
B|-5---5h7-5-----5-----5h7p5-------5---5h7-5-----5-------7p5-------|
G|---7-------7-7---7-7-------7-7-7---7-------7-7---7-7-7-----7-7-7-|
D|-----------------------------------------------------------------|
A|-----------------------------------------------------------------|
E|-----------------------------------------------------------------|

e|-----------------------------------------------------------------|
B|-5---5h7-5-----5-----5h7p5-------5---5h7-5-----5-----8~----------|
G|---7-------7-7---7-7-------7-7-7---7-------7-7---7-7-7~----------|
D|-----------------------------------------------------5~----------|
A|-----------------------------------------------------------------|
E|-----------------------------------------------------------------|


or you can do the intro in this easier way

e|-0---0h2-0-----0-----0h2p0-------0---0h2-0-----0-------2p0-------|
B|---3-------3-3---3-3-------3-3-3---3-------3-3---3-3-3-----3-3-3-|
G|-----------------------------------------------------------------|
D|-----------------------------------------------------------------|
A|-----------------------------------------------------------------|
E|-----------------------------------------------------------------|

e|-0---0h2-0-----0-----0h2p0-------0---0h2-0-----0-----3~----------|
B|---3-------3-3---3-3-------3-3-3---3-------3-3---3-3-3~----------|
G|-----------------------------------------------------0~----------|
D|-----------------------------------------------------------------|
A|-----------------------------------------------------------------|
E|-----------------------------------------------------------------|


Verse 1:
              D
I'm drunk off your kiss
     G
For another night in a row
                     D
This is becoming too routine for me
      Em             G
But I didn't mean to lead you on
         D                       G
And it's alright to pretend that we still talk
     D
It's just for show isn't it
Em                    G
It's my fault that it fell apart


Guitar 2: In part "Just for show isn't it, it's my fault that it fell apart"
e|-----------------------------------------------------------------------|
B|-5---5h7-5-----5-----5h7p5-------5---5h7-5-----5-----------------------|
G|---7-------7-7---7-7-------7-7-7---7-------7-7---7-7-7--9--9--9--9/11--|
D|--------------------------------------------------------x--x--x--x/-x--|
A|--------------------------------------------------------7--7--7--7/-9--|
E|-----------------------------------------------------------------------|

e|---------------------|
B|---------------------|
G|-12--12--12--1211----|
D|--x---x---x---x-x----|
A|-10--10--10--10-9----|
E|---------------------|


Refrain:
     Em        G
Just maybe you need this
      Em     G       A
And I didn't mean to lead you on


Chorus:
D                     G
You were everything I wanted
    D            G
But I just can't finish what I started
        Bm                      G
There's no room left here on my back
                     Bm
It was damaged long ago
                              G
Though you swear that you are true
F#m Em    D    A(Hold)         D--G(Repeat Intro for guitar 2)
I'd still pick my friends over you
                D--G
My friends over you!


Verse 2:
               D
Please tell me everything
         G
That you think that I should know
              D
About all the plans you made
     Em             G
When I was no where to be found
         D                        G
And it's all right to forget that we still talk
     D
It's just for fun isn't it
Em                    G
It's my fault that it fell apart


Guitar 2: In part "Just for fun isn't it, it's my fault that it fell apart"
e|-----------------------------------------------------------------------|
B|-5---5h7-5-----5-----5h7p5-------5---5h7-5-----5-----------------------|
G|---7-------7-7---7-7-------7-7-7---7-------7-7---7-7-7--9--9--9--9/11--|
D|--------------------------------------------------------x--x--x--x/-x--|
A|--------------------------------------------------------7--7--7--7/-9--|
E|-----------------------------------------------------------------------|

e|---------------------|
B|---------------------|
G|-12--12--12--1211----|
D|--x---x---x---x-x----|
A|-10--10--10--10-9----|
E|---------------------|


(Repeat Refrain and Chorus but don't repeat the intro)

Interlude:

D--F#m--G--D--F#m--G--Bm--F#m--G--Bm--A--G (x4)

Guitar 2: At 4th time
e|--------------------|
B|-----------------2~-|
G|---------------2----|
D|-0--0h4--4~--4------|
A|--------------------|
E|--------------------|


Refrain 2:
     Em        G        Em     G
Just maybe you need this   you need this
      Em     G       A
And I didn't mean to lead you on

(Repeat chorus twice)
(Repeat Intro)
Tap to rate this tab
 
# A B C D E F G H I J K L M N O P Q R S T U V W X Y Z