Song name
# A B C D E F G H I J K L M N O P Q R S T U V W X Y Z

New Order - Everythings Gone Green tab

Band: New Order
Song title: Everything's Gone Green
Album: Substance
Year: 1987
Guitarist : Bernard Sumner


Intro (Guitar starts at 00:33)

e|--13---13---8--8--8--8--8---8----3--3--x-x-3---3--3---1--1---0-0-0-0-0--0---1--1---1-1-1-1-1--1-|
B|--13---13---8--8--8--8--8---8----3--3--x-x-3---3--3---1--1---1-1-1-1-1--1---0--0---0-0-0-0-0--0-|
G|--14---14---9--9--9--9--9---9----4--4--x-x-4---4--4---2--2---0-0-0-0-0--0---0--0---0-0-0-0-0--0-|
D|--15---15---10-10-10-10-10--10---5--5--x-x-5---5--5---3--3---2-2-2-2-2--2---0--0---0-0-0-0-0--0-|
A|--15---15---10-10-10-10-10--10---5--5--x-x-5---5--5---3--3---3-3-3-3-3--3---2--2---2-2-2-2-2--2-|
E|--13---13---8--8--8--8--8---8----3--3--x-x-3---3--3---1--1------------------3--3---3-3-3-3-3--3-|


e|--13---13---8--8--8--8--8---8----3--3--x-x-3---3--3---1--1---0-0-0-0-0--0---3--3---3-3-3-3-3--3-|
B|--13---13---8--8--8--8--8---8----3--3--x-x-3---3--3---1--1---1-1-1-1-1--1---3--3---3-3-3-3-3--3-|
G|--14---14---9--9--9--9--9---9----4--4--x-x-4---4--4---2--2---0-0-0-0-0--0---4--4---4-4-4-4-4--4-|
D|--15---15---10-10-10-10-10--10---5--5--x-x-5---5--5---3--3---2-2-2-2-2--2---5--5---5-5-5-5-5--5-|
A|--15---15---10-10-10-10-10--10---5--5--x-x-5---5--5---3--3---3-3-3-3-3--3---5--5---5-5-5-5-5--5-|
E|--13---13---8--8--8--8--8---8----3--3--x-x-3---3--3---1--1------------------3--3---3-3-3-3-3--3-| 
*Repeat 

End with 

e|--13---13---8--8--8--8--8---8----3--3--x-x-3---3--3---1--1---0-0-0-0-0--0---1---|
B|--13---13---8--8--8--8--8---8----3--3--x-x-3---3--3---1--1---1-1-1-1-1--1---0---|
G|--14---14---9--9--9--9--9---9----4--4--x-x-4---4--4---2--2---0-0-0-0-0--0---0---|
D|--15---15---10-10-10-10-10--10---5--5--x-x-5---5--5---3--3---2-2-2-2-2--2---0---|
A|--15---15---10-10-10-10-10--10---5--5--x-x-5---5--5---3--3---3-3-3-3-3--3---2---|
E|--13---13---8--8--8--8--8---8----3--3--x-x-3---3--3---1--1------------------3---|

Outro (Guitar starts at 03:10)


e|--13---13---8--8--8--8--8---8----3--3--x-x-3---3--3---1--1---0-0-0-0-0--0---1--1---1-1-1-1-1--1-|
B|--13---13---8--8--8--8--8---8----3--3--x-x-3---3--3---1--1---1-1-1-1-1--1---0--0---0-0-0-0-0--0-|
G|--14---14---9--9--9--9--9---9----4--4--x-x-4---4--4---2--2---0-0-0-0-0--0---0--0---0-0-0-0-0--0-|
D|--15---15---10-10-10-10-10--10---5--5--x-x-5---5--5---3--3---2-2-2-2-2--2---0--0---0-0-0-0-0--0-|
A|--15---15---10-10-10-10-10--10---5--5--x-x-5---5--5---3--3---3-3-3-3-3--3---2--2---2-2-2-2-2--2-|
E|--13---13---8--8--8--8--8---8----3--3--x-x-3---3--3---1--1------------------3--3---3-3-3-3-3--3-|


e|--13---13---8--8--8--8--8---8----3--3--x-x-3---3--3---1--1---0-0-0-0-0--0---3--3---3-3-3-3-3--3-|
B|--13---13---8--8--8--8--8---8----3--3--x-x-3---3--3---1--1---1-1-1-1-1--1---3--3---3-3-3-3-3--3-|
G|--14---14---9--9--9--9--9---9----4--4--x-x-4---4--4---2--2---0-0-0-0-0--0---4--4---4-4-4-4-4--4-|
D|--15---15---10-10-10-10-10--10---5--5--x-x-5---5--5---3--3---2-2-2-2-2--2---5--5---5-5-5-5-5--5-|
A|--15---15---10-10-10-10-10--10---5--5--x-x-5---5--5---3--3---3-3-3-3-3--3---5--5---5-5-5-5-5--5-|
E|--13---13---8--8--8--8--8---8----3--3--x-x-3---3--3---1--1------------------3--3---3-3-3-3-3--3-| 
*Repeat 

End with 

e|--13---13---8--8--8--8--8---8----3--3--x-x-3---3--3---1--1---0-0-0-0-0--0---1---|
B|--13---13---8--8--8--8--8---8----3--3--x-x-3---3--3---1--1---1-1-1-1-1--1---0---|
G|--14---14---9--9--9--9--9---9----4--4--x-x-4---4--4---2--2---0-0-0-0-0--0---0---|
D|--15---15---10-10-10-10-10--10---5--5--x-x-5---5--5---3--3---2-2-2-2-2--2---0---|
A|--15---15---10-10-10-10-10--10---5--5--x-x-5---5--5---3--3---3-3-3-3-3--3---2---|
E|--13---13---8--8--8--8--8---8----3--3--x-x-3---3--3---1--1------------------3---|
Tap to rate this tab
# A B C D E F G H I J K L M N O P Q R S T U V W X Y Z