Song name
# A B C D E F G H I J K L M N O P Q R S T U V W X Y Z

Nickel Creek - Ode To A Butterfly tab

Tabbed By: Ben "The Man" Muir

Capo 2

E---------------0-2---0------------------------------------|
B-------------3-----3---3-0---0-2-3-0----------------------|
G-----------2---------------2---------2-0-----------2-0----|
D-----0-2-4-------------------------------4-2-0-2-4--------|
A-0-2------------------------------------------------------|
E----------------------------------------------------------|

E-----------------0---0-0-2-2-0-----0---0-0---0-0-2-2-0----|
B-------0-3-2-0-----------------3-0---------------------3--|
G---------------2---2-----------------2-----2--------------|
D-4-2-0----------------------------------------------------|
A----------------------------------------------------------|
E----------------------------------------------------------|

E----------------------------------------------------------|
B-0-2-3-0--------------------------------------------------|
G---------2-0----------------------------------------------|
D-------------4-2-0-------0-----0-0---4-2-0-----0---0-----0|
A-------------------0h2h4---4/5-----5-------0h2---0---4/5--|
E----------------------------------------------------------|

E----------------------------------------------------------|
B----------------------------------------------------------|
G----------------------------------------------------------|
D-0-0-4-2-0-2-0---0---2---2---2-4-4-2-0----0---2---2-------|
A---------------2---0---0---0-----------2----0---0---0-----|
E----------------------------------------------------------|

E----------------------------------------------------------|
B----------------------------------------------------------|
G----------------------------------------------------------|
D-2-4-4-2-0-----0-----------------2-0----------------------|
A-----------2h4---2-0-------0-2-4--------------------------|
E---------------------3-2-3--------------------------------|
Tap to rate this tab
 
# A B C D E F G H I J K L M N O P Q R S T U V W X Y Z