Song name
# A B C D E F G H I J K L M N O P Q R S T U V W X Y Z

Nile - Harvest tab

E||-------------------------||-------------------------||
B||---------4--3------------||---------4--3------------||
G||*--3--4--------3--------*||*--3--4--------3--------*||
D||*-----------------------*||*-----------------------*||
A||-------------------------||-------------------------||
D||-------------------------||-------------------------||


                             PM PM PM PM PM PM PM PM PM PM PM PM PM PM PM PM  
   E  E  E  E  H             S  S  S  S  S  S  S  S  S  S  S  S  S  S  S  S   
-------------------------||--------------------------------------------------|
---------4--3------------||--------------------------------------------------|
*--3--4--------3--------*||--------------------------------------------------|
*-----------------------*||--------------------------------------------------|
-------------------------||--0--0--0--0--0--0--0--0--0--0--0--0--0--0--0--0--|
-------------------------||--0--0--0--0--0--0--0--0--0--0--0--0--0--0--0--0--|


    PM PM PM PM PM PM PM PM                    
    S  S  S  S  S  S  S  S  S S S S S S S S  4x
|--------------------------------------------||
|--------------------------------------------||
|*------------------------------------------*||
|*------------------------------------------*||
|--------------------------------------------||
|---0--0--0--0--0--0--0--0--1-1-1-1-4-4-1-1--||


   PM PM PM PM      PM PM      PM       PM        
   S  S  S  S  S  S S  S  S  S S  S   S S  S   S  
-------------------------------------------------|
-------------------------------------------------|
*------------------------------------------------|
*------------------------------------------------|
---------------1s-6-------4s-8----6s-10----8s-12-|
---0--0--0--0--1--6-0--0--4--8-0--6--10-0--8--12-|


  PM PM PM PM      PM PM      PM       PM       
  S  S  S  S  S  S S  S  S  S S  S   S S  S  S  
-----------------------------------------------|
------------------------------------------4--8-|
------------------------------------------4s-8-|
-----------------------------------------------|
--------------1--6-------4s-8----6s-10---------|
--0--0--0--0--1s-6-0--0--4--8-0--6--10-0-------|


  PM PM PM PM      PM PM      PM       PM        
  S  S  S  S  S  S S  S  S  S S  S   S S  S   S  
------------------------------------------------|
------------------------------------------------|
------------------------------------------------|
------------------------------------------------|
--------------1s-6-------4s-8----6s-10----8s-12-|
--0--0--0--0--1--6-0--0--4--8-0--6--10-0--8--12-|


  PM PM PM PM      PM PM      PM       PM              PM PM PM                 
  S  S  S  S  S  S S  S  S  S S  S   S S  S  S       S S  S  S  Q    Q    Q     
------------------------------------------------||-----------------------------|
------------------------------------------------||-----------------------------|
-----------------------------------------------*||*----------------------------|
-----------------------------------------------*||*----------------------------|
--------------1s-6-------4s-8----6s-10----6s-1--||--------------1----4----2----|
--0--0--0--0--1--6-0--0--4--8-0--6--10-0--6--1--||---0-0--0--0--1----4----2----|


  PM PM PM PM                         PH                                 
  S  S  S  S  Q    Q    Q             Q        Q      Q     E      E     
------------------------------||---------------------------------------||
------------------------------||---------------------------------------||
-----------------------------*||*-------------12s----19----19pbr------*||
-----------------------------*||*--<>10pbr----------------------------*||
--------------1----4----9-----||----------------------------------12---||
--0--0--0--0--1----4----9-----||----------------------------------12---||


                         PM PM              W  PM PM              W   
   W                     S  S   S  S  S  S  E  S  S   S  S  S  S  E   
---------------------||----------------------------------------------|
---------------------||----------------------------------------------|
*-------------------*||-----------------12-13-----------------12-13--|
*--0----------------*||----------------------------------------------|
---0-----------------||--------13-12-11--------------13-12-11--------|
---0-----------------||--0--0------------------0--0------------------|


                          PM PM              W  PM PM              W   
    W                     S  S   S  S  S  S  E  S  S   S  S  S  S  E   
|---------------------||----------------------------------------------|
|---------------------||----------------------------------------------|
|*-------------------*||-----------------12-13-----------------12-13--|
|*--0----------------*||----------------------------------------------|
|---0-----------------||--------13-12-11--------------13-12-11--------|
|---0-----------------||--0--0------------------0--0------------------|


    PM PM PM PM    PM PM   PM PM PM PM   PM PM      
    S  S  S  S   S S  S  S S  S  S  S  S S  S  S  4x
|-------------------------------------------------||
|-------------------------------------------------||
|*-----------------------------------------------*||
|*-----------------------------------------------*||
|---------------12-------6-------------8-------2--||
|---0--0--0--0--12-0--0--6-0--0--0--0--8-0--0--2--||


   PM PM PM PM         PM PM PM PM            
   S  S  S  S  S S S S S  S  S  S  S S S S  4x
---------------3-2-5-6-------------6-5-3-2--||
--------------------------------------------||
*------------------------------------------*||
*------------------------------------------*||
--------------------------------------------||
---0--0--0--0----------0--0--0--0-----------||


   PM PM PM PM      PM PM      PM       PM        
   S  S  S  S  S  S S  S  S  S S  S   S S  S   S  
-------------------------------------------------|
-------------------------------------------------|
*------------------------------------------------|
*------------------------------------------------|
---------------1s-6-------4s-8----6s-10----8s-12-|
---0--0--0--0--1--6-0--0--4--8-0--6--10-0--8--12-|


  PM PM PM PM      PM PM      PM       PM       
  S  S  S  S  S  S S  S  S  S S  S   S S  S  S  
-----------------------------------------------|
------------------------------------------4--8-|
------------------------------------------4s-8-|
-----------------------------------------------|
--------------1--6-------4s-8----6s-10---------|
--0--0--0--0--1s-6-0--0--4--8-0--6--10-0-------|


  PM PM PM PM      PM PM      PM       PM        
  S  S  S  S  S  S S  S  S  S S  S   S S  S   S  
------------------------------------------------|
------------------------------------------------|
------------------------------------------------|
------------------------------------------------|
--------------1s-6-------4s-8----6s-10----8s-12-|
--0--0--0--0--1--6-0--0--4--8-0--6--10-0--8--12-|


  PM PM PM PM      PM PM      PM       PM                                    
  S  S  S  S  S  S S  S  S  S S  S   S S  S  S       E  E  E  E  H           
------------------------------------------------||-------------------------||
------------------------------------------------||---------4--3------------||
-----------------------------------------------*||*--3--4--------3--------*||
-----------------------------------------------*||*-----------------------*||
--------------1s-6-------4s-8----6s-10----6s-1--||-------------------------||
--0--0--0--0--1--6-0--0--4--8-0--6--10-0--6--1--||-------------------------||


   E  E  E  E  H           
-------------------------||
---------4--3------------||
*--3--4--------3--------*||
*-----------------------*||
-------------------------||
-------------------------||




Duration Legend
---------------
W - whole
H - half
Q - quarter
E - 8th
S - 16th
T - 32nd
X - 64th
. - note dotted
|-n-|  - n-tuplets


Tablature Legend
----------------
L - tied note
x - dead note
g - grace note
(n) - ghost note
> - accentuded note
NH - natural harmonic
AH - artificial harmonic
TH - tapped harmonic
SH - semi harmonic
PH - pitch harmonic
h - hammer on
p - pull off
b - bend
br - bendRelease
pb - preBend
pbr - preBendRelease
brb - bendReleaseBend
\n/ - tremolo bar dip
\n - tremolo bar dive
-/n - tremolo bar Release up
/n\ - tremolo bar inverted dip
/n - tremolo bar return
-\n - tremolo bar Release down
S - shift slide
s - legato slide
/ -  slide into from below or out of upwards
\ -  slide into from above or out of downwards
~ - vibrato
W - wide vibrato
tr - trill
TP - tremolo picking
T - tapping
S - slap
P - pop
< - fade in
^ - brush up
v - brush down
Tap to rate this tab
# A B C D E F G H I J K L M N O P Q R S T U V W X Y Z