Song name
# A B C D E F G H I J K L M N O P Q R S T U V W X Y Z

Nirvana - Territorial Pissings tab

Territorial Pissings
By:Nirvana

 In this song X means the number of times a
 a chord is played,not mute.


 Intro
|----------------------------------------------------------------|
|------------12--12------12----------12--------------------------|
|----11------------------11----------11--------------------------|
|----10------------------10----------10--------7-----------------|
|----0-------------------0-----------0---------7---5-------------|
|----------------------------------------------5---5-------------|


|--------------------------------------------------|
|----------------10--------7-----7-----------------| Play this
|----------------10-x7-----7-x8--7-x7--------------| part twice
|-7--7-7-7-7-7---10----5---7-----7-----------------|
|-7--7-7-7-7-7---8-----5---5-----5----5------------|
|-5--5-5-5-5-5-0----------------------5------------|


Verse 1(same as the 2nd part of intro)
|--------------------------------------------------|
|----------------10--------7-----7-----------------| Play twice
|----------------10-x7-----7-x8--7-x7--------------|
|-7--7-7-7-7-7---10----5---7-----7-----------------|
|-7--7-7-7-7-7---8-----5---5-----5----5------------|
|-5--5-5-5-5-5-0----------------------5------------|

Chorus(Play chorus twice)

 Gotta find a way..        when I'm there
|--------------------------------------------------|
|----------------10--------7-----7-----------------|
|----------------10-x7-----7-x8--7-x7--------------|
|-7--7-7-7-7-7---10----5---7-----7-----------------|
|-7--7-7-7-7-7---8-----5---5-----5----5------------|
|-5--5-5-5-5-5-0----------------------5------------|

 Gotta find a way..    I had better wait
|--------------------------------------------------|
|----------------10--------7-----7-----------------|
|----------------10-x7-----7-x8--7-x7--------------|
|-7--7-7-7-7-7---10----5---7-----7-----------------|
|-7--7-7-7-7-7---8-----5---5-----5----5------------|
|-5--5-5-5-5-5-0----------------------5------------|

Interlude w/flanger
|--------------------------------------|
|--------------------------------------| Play twice
|--------------------------------------|
|--------------------------------------|
|------7------7---------7------7-------|
|--5-5-5--5-5-5-----5-5-5--5-5-5-------|
      P.M.|--|  P.M.|--|

|--------------------------------------------------------------------------|
|------------------------------------------------------------------7-------|
|-------------------------------------------------------------------7------|
|--------------------------------------------------------------------7-----|
|-0-0-7------7---------7------7---------7------7-------7--------7-------7--|
|-----5--5-5-5-----5-5-5--5-5-5-----5-5-5--5-5-5---5-5-5----5-5-5-------5--|

Verse 2
 Just because your  paranoid
|------------------------------------------------|
|------------------------------------------------| * means the note
|------------------------------------------------|   should be bent
|---------------------(6)-------(6)*-------------|
|------------------------------------------------|
|------------------------------------------------|

 Dont mean they're not  after you
|----------------------------------------------|
|----------------------------------------------|  * means the note
|----------------------------------------------|    should be bent
|--------(5)------(5)--------------------------|
|-----------------------4---------(4)*---------|
|----------------------------------------------|

Chorus

|-----------------------------------------|
|-------------10---------7------7---------|
|-------------10---------7------7---------|
|-7--7--------10-x7-5----7-x8---7-x7------|
|-7--7-x5-----8-----5----5------5-----5---|
|-5--5----0---------------------------5---|

|----------------------------------------------------------------|
|-------------10--------7----------------------------------------| Play twice
|-------------10--------7-----7-7-----7-5------------------------|
|-7--7--------10-x7-5---7-x4--7-7-7---7-5-7--7-5-----------------|
|-7--7-x5-----8-----5---5---------7-------5------7---------------|
|-5--5----0------------------------------------------------------|

|-----------------------------------------------------|
|-----------------------------------------------------|
|-------0---------0----7------7-7-5-------------------|
|-------0---------0----7-x8---7-7-5-------------------|
|--7---------3---------5-------------7-7--6\5---------|
|--5-x7------1-x7--------------------5-5--4\3---------|


|-----------------------------------------------------------------|
|-------------10---------7----------------------------------------|
|-------------10-x7------7-x4--7-7------8-8-7---------------------|
|-7--7--------10----5----7-----7-7-7----8-8-7---7-7-5-------------|
|-7--7-x5-----8-----5----5---------7------------7------7----------|
|-5--5----0-------------------------------------------------------|


|---------------------------------------------|
|-------------10----------7-------------------|
|-------------10-x7-------7-x4--7-7-----------|
|-7--7--------10----5-----7-----7-7--7--------|
|-7--7-x5-----8-----5-----5----------7--------|
|-5--5----0-----------------------------------|

|------------------------------------------------------------|
|---------------------------------10-------7-----------------|
|-7--5----------------------------10-x7----7-x4--7-7---------|
|-7--5--7--7-5-------7---7--------10-------7-----7-7--7------|
|-------7------7-----7---7-x5-----8--------5----------7------|
|--------------------5---5----0------------------------------|

Outro
|---------------------------------------|
|------20---19--------------------------| Rake the
|---20-----------------------2----------| strings after
|----------------------------2----------| the Em chord.
|----------------------------0----------|
|----------------3--0-------------------|

| /  slide up
| \  slide down
| h  hammer-on
| p  pull-off
| ~  vibrato
| +  harmonic
| x  Mute note
Tap to rate this tab
# A B C D E F G H I J K L M N O P Q R S T U V W X Y Z