Song name
# A B C D E F G H I J K L M N O P Q R S T U V W X Y Z

Nirvana - Smells Like Teen Spirit tab

This is 100% right, don't be foolish and play someone else's tab

Main Riff/Intro 6x and 10x at the end

G--------x-x-x-x-3-3-0---------x-x-x-x-6-6-0--------------------------
D-3--3-3-x-x-x-x-3-3-0--6--6-6-x-x-x-x-6-6-0--------------------------
A-3--3-3-x-x-x-x-1-1-0--6--6-6-x-x-x-x-4-4-0--------------------------
E-1--1-1-x-x-x-x-----0--4--4-4-x-x-x-x-----0--------------------------

Verse 6x

B----6-------------------------------------------------
G--5---Let Ring and Palm Mute--------------------------

Pre-Chorus (hello, hello, hello, how low?)
(very distorted) 4x and on 4th one wait after 
the third "hello" and go into main riff

B---6---6---6---6-----------------
G-5---5---5---5-------------------

Post-Chorus 2x

G---------------3b--------------------------
D-3--3--3-3-4-4----3--3--3-3--8--8-8-6--6---
A-3--3--3-3-4-4----3--3--3-3--8--8-8-6--6---
E-1--1--1-1-2-2----1--1--1-1--6--6-6-4--4---

Solo (is actually accurate) 2x

B----4-6---4\6-4--2-1--2-1----------------
G--5-----1-----------------3-1--3\5-3--1-0
D-----------------------------------------

Solo Part 2 4x

G-1-0--1-0--1-0--1-0-0--------
D-----------------------3-----

This is a great song and means a lot to me...have fun, R.I.P. Kurt
Comments? Suggestions? UssMoFo@hotmail.com
Tap to rate this tab
 
# A B C D E F G H I J K L M N O P Q R S T U V W X Y Z