Song name
# A B C D E F G H I J K L M N O P Q R S T U V W X Y Z

Nirvana - Drain You tab

Song: Drain you
Artist: Nirvana
Album: Nevermind


"One baby to another says..."
                                        
|--------------------------------------   
|--------------------------------------
|----------0-8-0----------0-6-0--------  repeat this so may times as it takes.  
|-9--9-9-9-0-8-0-6--6-6-6-0-6-0--------
|-9--9-9-9-0-6-0-6--6-6-6-0-4-0--------
|----7-7-7-0---0-4--4-4-4-0---0--------

"Chew your meat for you..."

|-------------------------------------- 
|--------------------------------------
|-6-6-6-6-6-6-6-6----------------------
|-6-6-6-6-6-6-6-6-2-2-2-2-2-2-2-2------    repeat this so may times as it takes.
|-4-4-4-4-4-4-4-4-2-2-2-2-2-2-2-2------
|-----------------0-0-0-0-0-0-0-0------

Ends on " I like you"

|-----------------|
|-----------------|
|-4---------------|
|-4--7--6---------|
|-2--7--6---------|
|----5--4---------|


right after the doing this two times comes:

(with heavy distortion)

|--------------------------0--|
|--------------------------0--|
|--6-6-6-6-6-6-6-6-6-6-6-6-0--|
|--6-6-6-6-6-6-6-6-6-6-6-6----| (x3)
|--4-4-4-4-4-4-4-4-4-4-4-4----|
|-----------------------------|



then all is repeated again.

i hope you like it
BUENA SUERTE!!!! 
Tap to rate this tab
# A B C D E F G H I J K L M N O P Q R S T U V W X Y Z