Song name
# A B C D E F G H I J K L M N O P Q R S T U V W X Y Z

Nirvana - Heart Shapped Box tab

    

                               HEART SHAPED BOX - NIRVANA 
  THIS TOOK ME 2 HRS TO TAB FULLY,AND ITS 100% CORRECT.
INTRO:

                                                                                
E:-------------------------------------- ----------------------------------------------------
B:-------------------------------------- ----------------------------------------------------
G:-----2-------------------------------- -----2---------------------S----------------0-------
D:---2---2---------3--------0----0-----  2--2----2--------3-------2---4-4---4----4---0-------
A:-0------------3----3----0----0---0---  0--------------3---3-------------0----3-3-----------
D:-----------3----------0--------------  -------------3---------0----------------------------

VERSES:

E:---------------------------------------- --------------------------------------------------
B:-----2---------------------------------- --------------------------------------------------
G:-----2-----------------------------0---- -----2------------------S-------------------------
D:-2-2---2------3----------0---------0---- ---2---2------3-------2---4-4-4------0------------
A:-0----------3--3-----0-3--------0------- -0----------3---3---------------3--3-0------------
D:----------3--------0----------0--------- ----------3--------0------------------------------


E:---------------------------------------- --------------------------------------------------
B:-----2---------------------------------- --------------------------------------------------
G:-----2-----------------------------0---- -----2------------------S-------------------------
D:-2-2---2------3----------0---------0---- ---2---2------3-------2---4---4------0------------
A:-0----------3--3-----0-3--------0------- -0----------3---3-----------0---3--3-0------------
D:----------3--------0----------0--------- ----------3--------0------------------------------


E:---------------------------------------- --------------------------------------------------
B:-----2---------------------------------- --------------------------------------------------
G:-----2---------------------------0------ -----2------------------S-------------------------
D:-2-2---2------3----------0-----0---2---- ---2---2------3-------2---4---4------0------------
A:-0----------3--3-----0-3-------0---0---- -0----------3---3-----------0---3--3-0------------
D:----------3--------0-------------------- ----------3--------0------------------------------

                                                 W/DISTORTION
E:---------------------------------------- --------------------------------------------------
B:-----2---------------------------------- -----2--------------------------------------------
G:-----2-----------------------------0---- -----2------------------S-------------------------
D:-2-2---2------3----------0---------0---- ---2---2------3-------2---4-4-4------0------------
A:-0----------3--3-----0-3--------0------- -0----------3---3---------------3--3-0------------
D:----------3--------0----------0--------- ----------3--------0------------------------------

CHORUS:

E:--------------------------------------- ---------------------------------------------------
B:--------------------------------------- -----4^5-------------------------------------------
G:-------4^5------4^5--------------4^5--- -----4^5------4^5----------------4^5---------------
D:--2-2------3-3------------3---3-------- -2-2------3-3-----------4---4----------------------
A:--0-0------3-3-------0-0----0---3------ -0-0------3-3------0-0----0---3--------------------
D:-----------3-3-------0-0--------------- ----------3-3------0-0-----------------------------



E:--------------------------------------- ---------------------------------------------------
B:--------------------------------------- ---------------------------------------------------
G:-------4^5------4^5--------------4^5--- -----4^5------4^5----------------4^5---------------
D:--2-2------3-3------------4---4-------- -2-2------3-3-----------4---4----------------------
A:--0-0------3-3-------0-0----0---3------ -0-0------3-3------0-0----0---3--------------------
D:-----------3-3-------0-0--------------- ----------3-3------0-0-----------------------------



E:--------------------------------------- ---------------------------------------------------
B:-------4^5----------------------------- -----4^5-------------------------------------------
G:-------4^5------4^5--------------4^5--- -----4^5------4^5----------------4^5--0------------
D:--2-2------3-3------------4---4-------- -2-2------3-3-----------4-4-4---------0------------
A:--0-0------3-3-------0-0----0---3------ -0-0------3-3------0-0--0-0-0-3-------0------------
D:-----------3-3-------0-0--------------- ----------3-3------0-0-----------------------------


E:------------------------------------------- -----------------------------------------------
B:------------------------------------------- -----------------------------------------------
G:---------------------------4^5---4^5------- -----------------------------------------------
D:--3-3-3-3-3-3-3-3-/-0---0------0------0-0-- --3-3-3-3-3-3-3-3---0-0-0-0-0-------0----------
A:--3-3-3-3-3-3-3-3-/-0---0------0------0-0-- --3-3-3-3-3-3-3-3---0-0-0-0-0--3--3-0----------
D:--3-3-3-3-3-3-3-3-/-0---0------0----------- --3-3-3-3-3-3-3-3---0-0-0-0-0------------------

BACK TO VERSES:

E:---------------------------------------- --------------------------------------------------
B:-----2---------------------------------- --------------------------------------------------
G:-----2-----------------------------0---- -----2------------------S-------------------------
D:-2-2---2------3----------0---------0---- ---2---2------3-------2---4-4-4------0------------
A:-0----------3--3-----0-3--------0------- -0----------3---3---------------3--3-0------------
D:----------3--------0----------0--------- ----------3--------0------------------------------


E:---------------------------------------- --------------------------------------------------
B:-----2---------------------------------- --------------------------------------------------
G:-----2-----------------------------0---- -----2------------------S-------------------------
D:-2-2---2------3----------0---------0---- ---2---2------3-------2---4---4------0------------
A:-0----------3--3-----0-3--------0------- -0----------3---3-----------0---3--3-0------------
D:----------3--------0----------0--------- ----------3--------0------------------------------


E:---------------------------------------- --------------------------------------------------
B:-----2---------------------------------- --------------------------------------------------
G:-----2---------------------------0------ -----2------------------S-------------------------
D:-2-2---2------3----------0-----0---2---- ---2---2------3-------2---4---4------0------------
A:-0----------3--3-----0-3-------0---0---- -0----------3---3-----------0---3--3-0------------
D:----------3--------0-------------------- ----------3--------0------------------------------

                                                 W/DISTORTION
E:---------------------------------------- --------------------------------------------------
B:-----2---------------------------------- -----2--------------------------------------------
G:-----2-----------------------------0---- -----2------------------S-------------------------
D:-2-2---2------3----------0---------0---- ---2---2------3-------2---4-4-4------0------------
A:-0----------3--3-----0-3--------0------- -0----------3---3---------------3--3-0------------
D:----------3--------0----------0--------- ----------3--------0------------------------------

CHORUS:

E:--------------------------------------- ---------------------------------------------------
B:--------------------------------------- -----4^5-------------------------------------------
G:-------4^5------4^5--------------4^5--- -----4^5------4^5----------------4^5---------------
D:--2-2------3-3------------3---3-------- -2-2------3-3-----------4---4----------------------
A:--0-0------3-3-------0-0----0---3------ -0-0------3-3------0-0----0---3--------------------
D:-----------3-3-------0-0--------------- ----------3-3------0-0-----------------------------



E:--------------------------------------- ---------------------------------------------------
B:--------------------------------------- ---------------------------------------------------
G:-------4^5------4^5--------------4^5--- -----4^5------4^5----------------4^5---------------
D:--2-2------3-3------------4---4-------- -2-2------3-3-----------4---4----------------------
A:--0-0------3-3-------0-0----0---3------ -0-0------3-3------0-0----0---3--------------------
D:-----------3-3-------0-0--------------- ----------3-3------0-0-----------------------------



E:--------------------------------------- ---------------------------------------------------
B:-------4^5----------------------------- -----4^5-------------------------------------------
G:-------4^5------4^5--------------4^5--- -----4^5------4^5----------------4^5--0------------
D:--2-2------3-3------------4---4-------- -2-2------3-3-----------4-4-4---------0------------
A:--0-0------3-3-------0-0----0---3------ -0-0------3-3------0-0--0-0-0-3-------0------------
D:-----------3-3-------0-0--------------- ----------3-3------0-0-----------------------------


E:------------------------------------------- -----------------------------------------------
B:------------------------------------------- -----------------------------------------------
G:---------------------------4^5---4^5------- -----------------------------------------------
D:--3-3-3-3-3-3-3-3-/-0---0------0------0-0-- --3-3-3-3-3-3-3-3---0-0-0-0-0-------0----------
A:--3-3-3-3-3-3-3-3-/-0---0------0------0-0-- --3-3-3-3-3-3-3-3---0-0-0-0-0--3--3-0----------
D:--3-3-3-3-3-3-3-3-/-0---0------0----------- --3-3-3-3-3-3-3-3---0-0-0-0-0------------------

SOLO:
ITS RLLY EASY AND SOUNDS KIND HARD BUT YOU MIGHT WANNA USE A FUZZ BOX...
E:-------------------------------------------------------------------------------------------
B:------8^10-(8)----6^8-(8)-----------5^6------5-----3-----1---0-----------------------------
G:---------------------------3---------------------------------------------------------------
D:----7----------5-----------3---------------------------------------------------------------
A:-------------------------------------------------------------------------------------------
D:-------------------------------------------------------------------------------------------


E:-------------------------------------------------------------------------------------------
B:-----8^10-(8)----6^8-(8)---------5^6-------5------3------1---0-----------------------------
G:-------------------------------------------------------------------------------------------
D:---7----------5-----------3----------------------------------------------------------------
A:-------------------------------------------------------------------------------------------
D:-------------------------------------------------------------------------------------------


E:-------------------------------------------------------------------------------------------
B:-------------------------------------------------------------------------------------------
G:---2~~~~---------------------------------2~~~~~~~------------------------------------------
D:---2-------------------------------------2-------------------------------------------------
A:---0-------------------------------------0-------------------------------------------------
D:-------------------------------------------------------------------------------------------

OUTRO:

E:--------------------------------------------- --------------------------------------------
B:--------------------------------------------- --------------------------------------------
G:--------------------------4^5-(5)-(5)-(5)-(5) --------------------------------------------
D:--3-3-3-3-3-3-3-3-/-0---0-------------------- --3-3-3-3-3-3-3-3-/-0--4-4-4-4---4~~~-------
A:--3-3-3-3-3-3-3-3-/-0---0-------------------- --3-3-3-3-3-3-3-3-/-0----------3-3~~~-------
D:--3-3-3-3-3-3-3-3-/-0---0-------------------- --3-3-3-3-3-3-3-3-/-0-----------------------
     
TABBED BY CHRIS NJAU 
GUITAR: LES PAUL GIBSON DE ANMOND
Tap to rate this tab
# A B C D E F G H I J K L M N O P Q R S T U V W X Y Z