Song name
# A B C D E F G H I J K L M N O P Q R S T U V W X Y Z

Nirvana - Aneurysm tab

Song: Aneurysm
Band: Nirvana

x= Mute Sound (Sonido Mudo)
\= Slide Down (Deslizamiento <=)
/= Slide Up   (Deslizamiento =>)  

INTRO Riff 1 (2X) - Distortion: OFF / Reverb: OFF
e|------------------------------------------||
B|------------------------------------------||
G|-------------------5---------4---------2--||
D|-----4------------ 5---------4---------2--||
A|-----4------3--3---3--2--2---2---0--0--0--||
E|--2-----2---------------------------------||

Distortion: ON (Heavy) / Reverb: ON
e|-----------------------------------------------------
B|-----------------------------------------------------
G|--3-3-3-3-3-3-3-3-3/4-4-4-4-4-4-4-4-4/-5-5-5-5-5-5---
D|-----------------------------------------------------
A|-----------------------------------------------------
E|-----------------------------------------------------

e|---------------------------------------------------
B|---------------------------------------------------
G|--5/6-6-6-6-6/7-7-7-7-7/8-8-8-8-8/9-9-9/10-10-10---
D|---------------------------------------------------
A|---------------------------------------------------
E|---------------------------------------------------

e|---------------------||
B|---------------------||
G|-10/11-11-11/13/14/--||
D|---------------------||
A|---------------------||
E|---------------------||

Riff 2 (8X) - Distortion: ON / Reverb: OFF
e|----------------------------||
B|----------------------------||
G|-----x-5-5-x-4-4-4-x-2-2-2--||
D|-4-4-x-5-5-x-4-4-4-x-2-2-2--||
A|-4-4-x-3-3-x-2-2-2-x-0-0-0--||
E|-2-2------------------------||

Distortion: ON Reverb: OFF
e|--------------------------------------------------|----------||
B|--------------------------------------------------|----------||
G|--------------------------------------------------|-7)       ||
D|-9-9-9-9-9-9-9-9-9-9-9-9-9-9-9-9-9-9-9-9-9-9-9-9--|-7)==>10X ||
A|-9-9-9-9-9-9-9-9-9-9-9-9-9-9-9-9-9-9-9-9-9-9-9-9--|-5)       ||
E|-7-7-7-7-7-7-7-7-7-7-7-7-7-7-7-7-7-7-7-7-7-7-7-7--|----------||

CHORUS - Distortion: ON / Reverb: OFF
e|-------------------------------------||
B|-------------------------------------||
G|-------------------------------------||
D|--4-4---/6-7-7-7-8-9-9-9-8-7-7-7-----||
A|--4-4---/6-7-7-7-8-9-9-9-8-7-7-7-----||
E|--2-2---/4-5-5-5-6-7-7-7-6-5-5-5-----||

Lyric - Kurt Cobain

Come on over 
Do the twist (aha) 
Over do it 
Have a fit (aha) 
Love you so much 
Makes me sick (aha) 
Come on over 
Do the twist (aha) 

Beat me out of me (beat up beat up) 

Come on over 
Do the twist (aha) 
Over do it 
Have a fit (aha) 
Love you so much 
Makes me sick (aha) 
Come on over 
Shoot the shit (aha) 

Beat me out of me (beat up beat up) 

She gave the perfect strain to my heart.

---------------------------------------
English:
If you don?t have a console to do the Distortion & Reverb
effects, you can try with the best programme I could find:
Guitar FX BOX 2.6, download this software from: 
http://www.guitar-fxbox.com/ and the "crack" from:
http://www.cracks.am/ or http://astalavista.box.sk/

Espa?ol:
Si no ten?s unas consola para realizar los efectos de Distorsi?n 
y Reverb, pod?s intentar con el mejor programa del mundo, el:
Guitar FX BOX 2.6, descargalo desde: http://www.guitar-fxbox.com/
y su correspondiente "Crack" desde: 
http://www.cracks.am/ or http://astalavista.box.sk/

TAB BY PabloKoRn10 de Rosario!!! Argentina!!!
Tap to rate this tab
# A B C D E F G H I J K L M N O P Q R S T U V W X Y Z