Song name
# A B C D E F G H I J K L M N O P Q R S T U V W X Y Z

Nizlopi - Girls tab

This is my first tab but it sounds right. I'll put the rest up next week :) enjoy.

|-7-7-7--7-7-7--|--4-4-4-4--5-5--4---------|
|-9-9-9--9-9-9--|--5-5-5-5--5-5--5---------|
|---------------|--------------------------|     Play this part twice
|---------------|--------------------------|
|---------------|--------------------------|
|---------------|--------------------------|

|--4-4--2-2--5-5--4-4--2-4-2----|
|--5-5--4-4--5-5--5-5--4-4-4----|
|-------------------------------|    I think this part is played 7 times. (just use your ears)
|-------------------------------|
|-------------------------------|
|-------------------------------|

As i said earlier i'll put the rest up next week :) 
Tap to rate this tab
# A B C D E F G H I J K L M N O P Q R S T U V W X Y Z