Song name
# A B C D E F G H I J K L M N O P Q R S T U V W X Y Z

Nobuo Uematsu - Sign tab

-----------------------------------------------------------------------------
                             Sign - Nobuo Uematsu
-----------------------------------------------------------------------------

Tabbed by rockgoody
e-mail: rockgoody@hotmail.com

Author: Nobuo Uematsu
Movie: Final Fantasy 7 Advent Children
Title: Sign

This is the first 15 secs of the song. The song is actually done in piano, but you can
also play it on guitar. I think each measure is 3 beats.

 (0:00 - 0:08)
E|------------|------------|------------|----6-7-6-----|
B|------------|------------|----3-4-3---|4-7-------7-8-|
G|------------|--0-3-4-3---|0-3-------3-|--------------|
D|----0-1-0---|1---------4-|------------|--------------|
A|--1-------1-|------------|------------|--------------|
E|3-----------|------------|------------|--------------|

 (0:08 - 0:12)
E|------------|------------|------------|--------------|
B|------------|------------|------------|--------------|
G|5-----------|3-----------|------------|--------------|
D|7-----------|5-----------|------------|--------------|
A|------------|------------|5-----------|--------------|
E|------------|------------|------------|3-------------|

 (0:12 - 0:15)
E|8-----------|6-----------|
B|10----------|8-----------|
G|------------|------------|
D|------------|------------|
A|------------|------------|
E|------------|------------|

Of course, there are other ways to play this, but I think this is the easiest way.
Tap to rate this tab
# A B C D E F G H I J K L M N O P Q R S T U V W X Y Z