Song name
# A B C D E F G H I J K L M N O P Q R S T U V W X Y Z

Norma Jean - The Entire World Is Counting On Me And They Dont Even Know It tab

THE ENTIRE WORLD IS COUNTING ON ME, AND THEY DON'T EVEN KNOW IT
As recorded by Norma Jean
(From the 2004 Album BLESS THE MARTYR, KISS THE CHILD)

Transcribed by James Martyn
	

Words by Josh Scogin Music by Norma Jean

Gtr I (Db Ab Db Gb Bb Eb) - 'Untitled'
Gtr II (Db Ab Db Gb Bb Eb) - 'Untitled'

 Verse
  Q=175
             D5 N.C.   D5 N.C.     D5 N.C.   D5 N.C.
 4/4        6/4
  Gtr I
  W          Q  E E Q  Q  E E Q    Q  E E Q  Q  E E Q
|----------|---------------------|---------------------|
|----------|----3-3-3-----3-3-3--|----3-3-3-----3-3-3--|
|----------|----6-6-6-----6-6-6--|----6-6-6-----6-6-6--|
|----------|-0---------0---------|-0---------0---------|
|----------|-0---------0---------|-0---------0---------|
|----------|-0---------0---------|-0---------0---------|
|
| Gtr II
| W          Q  E E Q  Q  E E Q    Q  E E Q  Q  E E Q
|----------|---------------------|---------------------|
|----------|---------------------|---------------------|
|----------|----6-6-6-----6-6-6--|----6-6-6-----6-6-6--|
|----------|-0--5-5-5--0--5-5-5--|-0--5-5-5--0--5-5-5--|
|----------|-0--4-4-4--0--4-4-4--|-0--4-4-4--0--4-4-4--|
|----------|-0---------0---------|-0---------0---------|


    D5   N.C. D5   N.C.   D5   N.C. C#
    Q.   q  E Q.   q  E   Q.   q  E E E E E E E
||----------------------|-----------------------|
||o------3--3------3--3-|------3--3-------------|
||-------6--6------6--6-|------6--6-6-6-6-6-6-6-|
||--0---------0---------|-0---------------------|
||o-0---------0---------|-0---------4-4-4-4-4-4-|
||--0---------0---------|-0---------------------|
|
|   Q.   q  E Q.   q  E   Q.   q  E E E E E E E
||----------------------|-----------------------|
||o------3--3------3--3-|------3--3-------------|
||-------6--6------6--6-|------6--6-6-6-6-6-6-6-|
||--0---------0---------|-0---------5-5-5-5-5-5-|
||o-0---------0---------|-0---------4-4-4-4-4-4-|
||--0---------0---------|-0---------------------|


                        1.
  D5   N.C. D5   N.C.   D5   N.C. C#
  Q.   q  E Q.   q  E   Q.   q  E E E E E E E
|---------------------|--------------------------||
|------3--3------3--3-|------3--3---------------o||
|------6--6------6--6-|------6--6-6-6-6-6-6-6----||
|-0---------0---------|-0------------------------||
|-0---------0---------|-0---------4-4-4-4-4-4---o||
|-0---------0---------|-0------------------------||
|
| Q.   q  E Q.   q  E   Q.   q  E Q   Q   Q
|---------------------|--------------------------||
|------3--3------3--3-|------3--3---------------o||
|------6--6------6--6-|------6--6---------6------||
|-0---------0---------|-0-------------5----------||
|-0---------0---------|-0---------4-------------o||
|-0---------0---------|-0------------------------||


  2.
  D5   N.C. C#              D5   N.C.   D5   N.C.
  Q.   q  E E E E E E E     Q.    q   E Q.    q   E
|-----------------------||--------------------------|
|------3--3-------------||o-------9---9-------9---9-|
|------6--6-6-6-6-6-6-6-||-------12--12------12--12-|
|-0---------------------||--0-----------0-----------|
|-0---------4-4-4-4-4-4-||o-0-----------0-----------|
|-0---------------------||--0-----------0-----------|
|
| Q.   q  E E E E E E E     Q.    q   E Q.    q   E
|-----------------------||--------------------------|
|------3--3-------0-0-0-||o-------9---9-------9---9-|
|------6--6-6-6-6-6-6-6-||-------12--12------12--12-|
|-0---------5-5-5-5-5-5-||--0-----------0-----------|
|-0---------4-4-4-4-4-4-||o-0-----------0-----------|
|-0---------------------||--0-----------0-----------|


  D5   N.C.   G
  Q.    q   E  E  E  E  E  E  E
|---------------------------------||
|-------9---9--------------------o||
|------12--12-12-12-12-12-12-12---||
|-0-------------------------------||
|-0-----------10-10-10-10-10-10--o||
|-0-------------------------------||
|
| Q.    q   E  E  E  E  E  E  E
|---------------------------------||
|-------9---9--------------------o||
|------12--12-12-12-12-12-12-12---||
|-0-------------------------------||
|-0-----------10-10-10-10-10-10--o||
|-0-------------------------------||


  D5   N.C.     D5   N.C.     D5   N.C.   G
  Q.     q    E Q.    q   E   Q.    q   E  E  E  E  E  E  E
|---------------------------|-------------------------------|
|--------9----9-------9---9-|-------9---9-------------------|
|------(12)--12------12--12-|------12--12-12-12-12-12-12-12-|
|-0-------------0-----------|-0-----------------------------|
|-0-------------0-----------|-0-----------10-10-10-10-10-10-|
|-0-------------0-----------|-0-----------------------------|
|
| Q.     q    E Q.    q   E   Q.    q   E  Q     Q     Q
|---------------------------|-------------------------------|
|--------9----9-------9---9-|-------9---9-------------------|
|-------12---12------12--12-|------12--12-------------12----|
|-0-------------0-----------|-0-----------------11----------|
|-0-------------0-----------|-0-----------10----------------|
|-0-------------0-----------|-0-----------------------------|


  D5   N.C.     D5   N.C.     D5   N.C.   G
  Q.     q    E Q.    q   E   Q.    q   E  E  E  E  E  E  E
|---------------------------|----------------------------------|
|--------9----9-------9---9-|-------9---9----------------------|
|------(12)--12------12--12-|------12--12-12-12-12-12-12-12----|
|-0-------------0-----------|-0--------------------------------|
|-0-------------0-----------|-0-----------10-10-10-10-10-10----|
|-0-------------0-----------|-0--------------------------------|
|
| Q.     q    E Q.    q   E   Q.    q   E  E  E  E  E  E  E
|---------------------------|----------------------------------|
|--------9----9-------9---9-|-------9---9----------------------|
|-------12---12------12--12-|------12--12-12-12-12-12-12-12----|
|-0-------------0-----------|-0--------------------------------|
|-0-------------0-----------|-0-----------10-10-10-10-10-10----|
|-0-------------0-----------|-0--------------------------------|


   Chorus
    D5                                                N.C.
     E  E  E E  E E  E  E  E E  E E    E  E  E E  E E  E E  E E  E E
||----------------------------------|--------------------------------|
||o--9--9--9-9--9-9--9--9--9-9--9-9-|--9--9--9-9--9-9--9-9--9-9--9-9-|
||--12----12---12---12----12---12---|-12----12---12---12---12---12---|
||----------------------------------|--------------------------------|
||o---------------------------------|--------------------------------|
||----------------------------------|--------------------------------|
|
|    h.              h.                h.              E E  E E  E E
||----------------------------------|--------------------------------|
||o---------------------------------|--------------------------------|
||----------------------------------|------------------5-5--5-5--5-5-|
||---0---------------0--------------|--0---------------4-4--4-4--4-4-|
||o--0---------------0--------------|--0---------------3-3--3-3--3-3-|
||---0---------------0--------------|--0-----------------------------|


  D5                                                N.C.
   E  E  E E  E E  E  E  E E  E E    E  E  E E  E E  E E  E E  E E
|---------------------------------|-----------------------------------||
|--9--9--9-9--9-9--9--9--9-9--9-9-|--9--9--9-9--9-9--9-9--9-9--9-9---o||
|-12----12---12---12----12---12---|-12----12---12---12---12---12------||
|---------------------------------|-----------------------------------||
|---------------------------------|----------------------------------o||
|---------------------------------|-----------------------------------||
|
|  h.              h.                h.              E E  E E  E E
|---------------------------------|-----------------------------------||
|---------------------------------|----------------------------------o||
|---------------------------------|------------------5-5--5-5--5-5----||
|--0---------------0--------------|--0---------------4-4--4-4--4-4----||
|--0---------------0--------------|--0---------------3-3--3-3--3-3---o||
|--0---------------0--------------|--0--------------------------------||


                            1.                          2.       Q=150
    D5                                                  D5
    Gtrs I, II
    PM----------------------------------------------------|      PM----|
    E E Q.   S S E E H      E E Q.   S S E E H          E E H    Q  Q  Q
||------------------------|------------------------||-|---------------------|
||o-----------------------|-----------------------o||-|---------------------|
||------------------------|------------------------||-|---------------------|
||--0-0------0-0-0-0------|-0-0------0-0-0-0-------||-|-0-0------0--0--0----|
||o-0-0------0-0-0-0------|-0-0------0-0-0-0------o||-|-0-0------0--0--0----|
||--0-0------0-0-0-0------|-0-0------0-0-0-0-------||-|-0-0------0--0--0----|


 Breakdown
  D5
 4/4                           5/4               4/4
  Q  Q  Q  Q    E E E E Q  Q    Q  Q  E E Q  Q    E E E E E E E E
|-------------|---------------|-----------------|-----------------|
|-------------|---------------|-----------------|-----------------|
|-------------|---------------|-----------------|-----------------|
|-0-----0-----|-x-x-x-x-0-----|-0-----x-x-0-----|-x-x-x-x-x-x-x-x-|
|-0-----0-----|-x-x-x-x-0-----|-0-----x-x-0-----|-x-x-x-x-x-x-x-x-|
|-0-----0-----|-x-x-x-x-0-----|-0-----x-x-0-----|-x-x-x-x-x-x-x-x-|


  D5
                               5/4              4/4
  Q  Q  q  Q    Q  E E E E Q    Q  Q  Q  Q  Q    Q  Q  Q  Q
|-------------|---------------|----------------|--------------|
|-------------|---------------|----------------|--------------|
|-------------|---------------|----------------|--------------|
|-0-----0--0--|----x-x-x-x-0--|----0-----0-----|-0-----0------|
|-0-----0--0--|----x-x-x-x-0--|----0-----0-----|-0-----0------|
|-0-----0--0--|----x-x-x-x-0--|----0-----0-----|-0-----0------|


  D5
  E E E E Q  Q    Q  Q  E E Q    Q  E E E E E E   E E Q  Q  q
|---------------|--------------|----------------|--------------|
|---------------|--------------|----------------|--------------|
|---------------|--------------|----------------|--------------|
|-x-x-x-x-0-----|-0-----x-x-0--|----x-x-x-x-x-x-|-x-x-0-----0--|
|-x-x-x-x-0-----|-0-----x-x-0--|----x-x-x-x-x-x-|-x-x-0-----0--|
|-x-x-x-x-0-----|-0-----x-x-0--|----x-x-x-x-x-x-|-x-x-0-----0--|


                                                Guitar Break
                                                 H.=H
  D5                                       BbA5  G5   A5   F5   G#5  E5
                                                3/4                 4/4
  Q  Q  E E E E   Q  Q  Q  Q     E E Q  Q  E E   H    Q    H    Q    W
|---------------|-------------||---------------|---------|---------|------|
|---------------|-------------||---------------|---------|---------|------|
|---------------|-------------||---------------|---------|---------|------|
|-0-----x-x-x-x-|-0-----0-----||-x-x-0-----8-7-|-5----7--|-3----6--|-2----|
|-0-----x-x-x-x-|-0-----0-----||-x-x-0-----8-7-|-5----7--|-3----6--|-2----|
|-0-----x-x-x-x-|-0-----0-----||-x-x-0-----8-7-|-5----7--|-3----6--|-2----|


 Breakdown Reprise
  Q=125
  D5
                               5/4               4/4
  Q  Q  Q  Q    E E E E Q  Q    Q  Q  E E Q  Q    E E E E E E E E
|-------------|---------------|-----------------|------------------|
|-------------|---------------|-----------------|------------------|
|-------------|---------------|-----------------|------------------|
|-0-----0-----|-x-x-x-x-0-----|-0-----x-x-0-----|-x-x-x-x-x-x-x-x--|
|-0-----0-----|-x-x-x-x-0-----|-0-----x-x-0-----|-x-x-x-x-x-x-x-x--|
|-0-----0-----|-x-x-x-x-0-----|-0-----x-x-0-----|-x-x-x-x-x-x-x-x--|


                                             H=H
  D5                       D5
                                3/4         4/4
  Gtr I
  Q  Q  q  Q    Q  E E E E  Q    Q   Q  Q     W
|-------------|----------------|-----------|-------|
|-------------|------------12--|----12-----|-12----|
|-------------|------------15--|----15-----|-15----|
|-0-----0--0--|----x-x-x-x-13--|----13-----|-13----|
|-0-----0--0--|----x-x-x-x-----|-----------|-------|
|-0-----0--0--|----x-x-x-x-----|-----------|-------|
|
| Gtr II
| Q  Q  q  Q    Q  E E E E  Q    Q   Q  Q     W
|-------------|----------------|-----------|-------|
|-------------|----------------|-----------|-------|
|-------------|----------------|-----------|-------|
|-0-----0--0--|----x-x-x-x--0--|-----0-----|--0----|
|-0-----0--0--|----x-x-x-x--0--|-----0-----|--0----|
|-0-----0--0--|----x-x-x-x--0--|-----0-----|--0----|


 Bridge
  Q=130
  (Bmaj7)
   E   E  E  S  E  S  S  S  q       E  E  S  S  S  E  E  S  q
|------------------------------||------------------------------|
|-----12-------12-------12-12--||o----12-------12-------12-12--|
|--------15-------15-------15--||--------15-------15-------15--|
|-13--------13-------13----13--||--13-------13-------13----13--|
|------------------------------||o-----------------------------|
|------------------------------||------------------------------|
|
|  H.                       q       E  E  S  S  S  E  E  S  q
|------------------------------||------------------------------|
|--------------------------12--||o----12-------12-------12-12--|
|--------------------------15--||--------15-------15-------15--|
|--------------------------13--||--13-------13-------13----13--|
|------------------------------||o-----------------------------|
|------------------------------||------------------------------|


 6/4
   E  E  S  S  S  E  E  S  q   q   q    5x
|---------------------------------------||
|----12-------12-------12-12--12--12---o||
|-------15-------15-------15--15--15----||
|-13-------13-------13----13--13--13----||
|--------------------------------------o||
|---------------------------------------||
|
|  E  E  S  S  S  E  E  S  q   q   q    5x
|---------------------------------------||
|----12-------12-------12-12--12--12---o||
|-------15-------15-------15--15--15----||
|-13-------13-------13----13--13--13----||
|--------------------------------------o||
|---------------------------------------||


  (Bmaj7)
 4/4                           3/4
  Gtrs I, II
   E  E  S  S  S  E  E  S  q     E  E  S  S  S  E  E  S
|-----------------------------|-------------------------|
|----12-------12-------12-12--|----12-------12-------12-|
|-------15-------15-------15--|-------15-------15-------|
|-13-------13-------13----13--|-13-------13-------13----|
|-----------------------------|-------------------------|
|-----------------------------|-------------------------|


  H=H
  N.C.
 4/4
   q   q   q   q     q   q   q   q     q   q   q   q
|-----------------|-----------------|-----------------|
|-12--12--12--12--|-12--12--12--12--|-12--12--12--12--|
|-15--15--15--15--|-15--15--15--15--|-15--15--15--15--|
|-13--13--13--13--|-13--13--13--13--|-13--13--13--13--|
|-----------------|-----------------|-----------------|
|-----------------|-----------------|-----------------|


   Out-Chorus
    Q=140
    (Bmaj7)
     q   q   q   q     q   q   q   q     q   q   q   q     q   q   q   q
||------------------|-----------------|-----------------|-------------------||
||o-12--12--12--12--|-12--12--12--12--|-12--12--12--12--|-12--12--12--12---o||
||--15--15--15--15--|-15--15--15--15--|-15--15--15--15--|-15--15--15--15----||
||--13--13--13--13--|-13--13--13--13--|-13--13--13--13--|-13--13--13--13----||
||o-----------------|-----------------|-----------------|------------------o||
||------------------|-----------------|-----------------|-------------------||


    (Bmaj7)
    Gtr I
     q     q     q     q       q     q     q     q
||--------------------------|-------------------------|
||o-11----11----11----11----|-11----11----11----11----|
||--14----14----14----14----|-14----14----14----14----|
||--12----12----12----12----|-12----12----12----12----|
||o-------------------------|-------------------------|
||--------------------------|-------------------------|
|
|   Gtr II
|    E  E  E  E  E  E  E  E    E  E  E  E  E  E  E  E
||--------------------------|-------------------------|
||o-11-11----11----11----11-|-11-11----11----11----11-|
||--14----14----14----14----|-14----14----14----14----|
||--------------------------|-------------------------|
||o-------------------------|-------------------------|
||--------------------------|-------------------------|


   q     q     q     q       q     q     q     q
|-------------------------|---------------------------||
|-11----11----11----11----|-11----11----11----11-----o||
|-14----14----14----14----|-14----14----14----14------||
|-12----12----12----12----|-12----12----12----12------||
|-------------------------|--------------------------o||
|-------------------------|---------------------------||
|
|  E  E  E  E  E  E  E  E    E  E  E  E  E  E  E  E
|-------------------------|---------------------------||
|-11-11----11----11----11-|-11-11----11----11----11--o||
|-14----14----14----14----|-14----14----14----14------||
|-------------------------|---------------------------||
|-------------------------|--------------------------o||
|-------------------------|---------------------------||


  (Bmaj7)
   q   q   q   q     q   q   q   q     q   q   q   q     q   q   q   q
|-----------------|-----------------|-----------------|------------------|
|-12--12--12--12--|-12--12--12--12--|-12--12--12--12--|-12--12--12--12---|
|-15--15--15--15--|-15--15--15--15--|-15--15--15--15--|-15--15--15--15---|
|-13--13--13--13--|-13--13--13--13--|-13--13--13--13--|-13--13--13--13---|
|-----------------|-----------------|-----------------|------------------|
|-----------------|-----------------|-----------------|------------------|
|
|  q   q   q   q     q   q   q   q     q   q   q   q     q   q   q   q
|-----------------|-----------------|-----------------|------------------|
|-12--12--12--12--|-12--12--12--12--|-12--12--12--12--|-12--12--12--12---|
|-15--15--15--15--|-15--15--15--15--|-15--15--15--15--|-15--15--15--15---|
|-13--13--13--13--|-13--13--13--13--|-13--13--13--13--|-13--13--13--13---|
|-----------------|-----------------|-----------------|------------------|
|-----------------|-----------------|-----------------|------------------|


    (Bmaj7)
     e  E  E  E  E  E  E  E    e  E  E  E  E  E  E  E
||--------------------------|-------------------------|
||o-12-12----12----12-------|-12-12----12----12-------|
||--15----15----15----15----|-15----15----15----15----|
||--13-------------------13-|-13-------------------13-|
||o-------------------------|-------------------------|
||--------------------------|-------------------------|
|
|    q     q     q     q       q     q     q     q
||--------------------------|-------------------------|
||o-12----12----12----12----|-12----12----12----12----|
||--15----15----15----15----|-15----15----15----15----|
||--13----13----13----13----|-13----13----13----13----|
||o-------------------------|-------------------------|
||--------------------------|-------------------------|


   e  E  E  E  E  E  E  E    e  E  E  E  E  E  E  E
|-------------------------|---------------------------||
|-12-12----12----12-------|-12-12----12----12--------o||
|-15----15----15----15----|-15----15----15----15------||
|-13-------------------13-|-13-------------------13---||
|-------------------------|--------------------------o||
|-------------------------|---------------------------||
|
|  q     q     q     q       q     q     q     q
|-------------------------|---------------------------||
|-12----12----12----12----|-12----12----12----12-----o||
|-15----15----15----15----|-15----15----15----15------||
|-13----13----13----13----|-13----13----13----13------||
|-------------------------|--------------------------o||
|-------------------------|---------------------------||


  (Bmaj7)
   q   q   q   q     q   q   q   q     q   q   q   q     q   q   q   Q
|-----------------|-----------------|-----------------|------------------*|
|-12--12--12--12--|-12--12--12--12--|-12--12--12--12--|-12--12--12--12\--*|
|-15--15--15--15--|-15--15--15--15--|-15--15--15--15--|-15--15--15--15\--*|
|-13--13--13--13--|-13--13--13--13--|-13--13--13--13--|-13--13--13--13\--*|
|-----------------|-----------------|-----------------|------------------*|
|-----------------|-----------------|-----------------|------------------*|
|
|  q   q   q   q     q   q   q   q     q   q   q   q     q   q   q   Q
|-----------------|-----------------|-----------------|------------------*|
|-12--12--12--12--|-12--12--12--12--|-12--12--12--12--|-12--12--12--12\--*|
|-15--15--15--15--|-15--15--15--15--|-15--15--15--15--|-15--15--15--15\--*|
|-13--13--13--13--|-13--13--13--13--|-13--13--13--13--|-13--13--13--13\--*|
|-----------------|-----------------|-----------------|------------------*|
|-----------------|-----------------|-----------------|------------------*|



Duration Legend
---------------
W - whole; H - half; Q - quarter; E - 8th; S - 16th; T - 32nd; X - 64th; a - acciaccatura
+ - note tied to previous; . - note dotted; .. - note double dotted
Uncapitalized letters represent notes that are staccato (1/2 duration)
Irregular groupings are notated above the duration line
Duration letters will always appear directly above the note/fret number it represents the
duration for.  Duration letters with no fret number below them represent rests.  Multi-
bar rests are notated in the form Wxn, where n is the number of bars to rest for.  Low
melody durations appear below the staff

Tablature Legend
----------------
 h   - hammer-on
 p   - pull-off
 b   - bend
 pb  - pre-bend
 r   - bend release (if no number after the r, then release immediately)
 /\  - slide into or out of (from/to "nowhere")
 s   - legato slide
 S   - shift slide
 - natural harmonic
[n]  - artificial harmonic
n(n) - tapped harmonic
 ~   - vibrato
 tr  - trill
 T   - tap
 TP  - trem. picking
 PM  - palm muting
\n/  - tremolo bar dip; n = amount to dip
 \n  - tremolo bar down
 n/  - tremolo bar up
/n\  - tremolo bar inverted dip
 =   - hold bend; also acts as connecting device for hammers/pulls
 <> - volume swell (louder/softer)
 x   - on rhythm slash represents muted slash
 o   - on rhythm slash represents single note slash

Misc Legend
-----------
 |  - bar
||  - double bar
||o - repeat start
o|| - repeat end
*|  - double bar (ending)
 :  - bar (freetime)
 $  - Segno
 &  - Coda
Tempo markers -  = BPM(8/16=s8/s16), where s8 = swing 8ths, s16 = swing 16ths

Tap to rate this tab
# A B C D E F G H I J K L M N O P Q R S T U V W X Y Z