Song name
# A B C D E F G H I J K L M N O P Q R S T U V W X Y Z

Norman Blake - You Are My Sunshine tab

Help us improve GuitareTab! Take a short survey!
You guyz might not appreciate the fact that I am tabbing this song because 
it's been tabbed so many times. But let me just say that I tried the 
other tabs and they were helpful in no way. Therefore, I present to you 
my interpretation of:
----------------------------------------------------------------------------
"You Are My Sunshine"
 by Norman Blake
 tabbed by SaiNt adEL #13

Key F# (Capo 2)
4/4 time (med fast)
----------------------------------------------------------------------------
INTRO:
e|-----------------0-|
B|-----------------0-|
G|-----------------1-|
D|-----------------2-|
A|---------0-------2-|
E|-0-2-4-----2-----0-|

E  A  E

VERSE 1:
           E                                           A
The other night, dear as, I lay sleeping, I dreamed I held you in my arms.
            A                   A                     D          E
But when I woke, dear, I was mistaken, and I hung my head and I cried.

CHORUS:
            E                                       A              
You are my sunshine, my only sunshine, you make me happy, when skies are 
                                                                        E
                                                                       gray.
              A                           E                         D
You'll never know, dear, how much I love you, please don't take my sunshine
                                                                        E
                                                                       away.

MUS. INT.:
   E                                 A           E
e|-------------------------|-------------------------|
B|-------------------------|-------------------------|
G|-------------------------|-------------------------|
D|-------------------------|-------------------------|
A|-------------------------|-----0---4---2---0-------|
E|-0-2-4---4---4-2-4-0---0-|-2-4----------------/5---|

         A               E             D       E
e|-------------------------|-------------------------|
B|-------------------------|-------------------------|
G|-------------------------|-------------------------|
D|-------------------------|-------------------------|
A|-------0-4---4-2-0-------|---------0---------------|
E|-0-2-4-------------4p2-0-|-0-2-4-----2---2h4-0-----|

----------------------------------------------------------------------------

Play in the following order:
VERSE 1
CHORUS
MUS. INT.
VERSE 2
CHORUS
MUS. INT.
VERSE 3
CHORUS
MUS. INT.
VERSE 4
CHORUS
then end with: E  A  E  A  D  E

If you need the lyrics to the rest of the verses contact me by messaging my 
account or email at vot4stu@yahoo.com.
Related for You Are My Sunshine tab