Guitaretab - guitar tabs
Song name
# A B C D E F G H I J K L M N O P Q R S T U V W X Y Z

Norman Blake - Man Of Constant Sorrow tab

Norman Blake  -  Man Of Constant Sorrow (instrumental)

*****************************************************************************
I take no credit for this tab. I found it on another tab website and I wanted to make it 
easy for people who have the UGapp.
By axehappy  -  axehappy@
*****************************************************************************

"This song is a bit too repetitive to tab all the way through, so I've tabbed
what I classed as the 1st and 2nd parts of the song.

"Once you've learned these, the rest of the song is kinda just mixes of these two parts 
repeated over and over, so it shouldn't be too hard for you to figure out." - axehappy  
-  axehappy@


E--------------------------------3-3-----------|
B------------3--3--3---3---------0-0--0-1/3-3--|
G-------0-0----0--0--0---------0-0-0--0-2/4-4--|
D--0-0-3--4h5-5--5--5-5-0-0-0-0--0---0---------|
A-----------------------------------2----------|
E----------------------------------------------|

|--0-------0-----------------1-1/2-0-----------|
|--3-1---1-1-1--1-1-1-1----1-1-2/3--3-3-3---3--|
|----2p0-0---0h2--0-0-0-0-0--2-1/2----2--2-2---|
|----------------2-----2-----0-0------0--0-0---|
|----------------3-----3-----------------------|
|----------------------------------------------|

|-----------------3------------------------|
|---1h3p1p0-1/3--3-0-0-0-0-0-0----3--3--3--|
|--2--------2/4-0--0---0-0-0-0------0--0---|
|--0--------------3-2-0----0-0-3/5-5--5--5-|
|-------------------------2----------------|
|------------------------------------------|

|---------------3-3------------0----0-0-------|
|----3-3--------0-0---0-0-1/3--3-1--1-1-1--1--|
|--0-0-0--42-0-0-0-0-0-0-2/4-4--2p0----0h2----|
|-------0-0--0--0-0-0-------------------------|
|---------------------------------------------|
|---------------------------------------------|

           rake
|--------------1-1/2-0-2---2-2--------------|
|----1-1--1--1-1-2/3----3-3------1h3p1-1/3--|
|----0-0--0-0--2-1/2----------2-2------2/4--|
|--2-2-2---2---0-0------------0-------------|
|--3-----3----------------------------------|
|-------------------------------------------|

|---3-3------3-3------------------------------|
|---0-0--0-0-0-0-0-0--0-0---0---0------0-0--0-|
|--0-----0-0-0-0-0-0--0-0--0---0-----0-0-0--0-|
|------0----0---0-----0-0-0---0-----0--0-0-0--|
|-------3---2--------5---5---5---5-2----------|
|-------------------------------------3---3---|
[ Tab from: http://www.guitaretab.com/n/norman-blake/273017.html ]
|---------------------------------------|
|-----0-0--------1-1--1-1---1-1---------|
|-----0-0----0---0-0--0-0---0-0------2--|
|-----0-0----0---2-2-2------2-2-3---0---|
|--0h2---2p0--0-3--------0h3---3-3-3----|
|-----------3-------3-------------------|

|-------------------------3-3-3-3-3---3-3--|
|-------------------------0-0-0-0-0---0-0--|
|--------2-2----0-0---0---0-0-0-0-0---0-0--|
|-----0-0-----0-0-0---0-0-0-0-0-0-0-0-0-0--|
|--3h5------0-3---1h2-2-2-----------2------|
|--------------------3---------3-----------|


This next section just repeats over and over in a similar style
until the end of the song.

|-------------------------3-3-----------------|
|----------------0--------0-0-------------0---|
|--0-----0-0----0-0---0---0-0-0-0-0-0---0-0---|
|--0----0----0-0--0---0---0-0---0-0-0---0-----|
|--3/5-5----5-5---53-1h2------------0h2---2p0-|
|------------------------3--------------------|

|----------------------------2-2----------|
|-------1-1-1-1-1-1-1--------3-3--------1-|
|-------0-0-0-0-0-0-0--------2-2-2-2----2-|
|---0---2-2-2-2-2-2-2-2-3---0---0---0-0---|
|---0-3---------3-------3-3------3----3---|
|--3-------0------------------------------|

|--------3-3--3-3-3-3-3--------------------|
|--------0-0--0-0-0-0-0------3--3--3--3-3--|
|------0-0-0--0-0-0-0-0----0---0--0--0---0-|
|----0-0-0-0-0------0-0-0h2-5-5--5--5------|
|--3-1-2-----2-----------------------------|
|-------3----------3-----------------------|

|--------3-3----------0----0-0------------|
|--------0-0-0-0-1/3--3-1--1-1-1--1-1-1-1-|
|-42---0--------2/4-4--2p0----0h2--0-0-0--|
|----0-0--------0-------------------2-2-2-|
|----------------------------------3------|
|-----------------------------------------|

|-----------2-2------------------------3-----3-3-----|
|----1-1--0-3-3-3--3-31-1-1h3p1-1/3-0-0-0-0-0-0-0-0--|
|----0-0-0--2-2--2-2-----2-2-----2/4-0---0-0-0-0-0-0-|
|--2-2-2-0--0----0--------------------0-3-2-0----0-0-|
|-----------------------------------------------2----|
|----------------------------------------------------|

|--------------------------3-3------|
|---3--3--3--3-3----------0-0----0--|
|------0--0--0-----42---0-0-0----0--|
|-3/5-5--5--5----0-0--0-0--0-0-0-0--|
|-----------------------------------|
|-----------------------------------|

|------0-0----0-0----------------1-2-0-2---2-2---------|
|--1/3-3-3-1--1-1-1--1---1-1-1-1-1-3-3-3-3-3--31-1h3p1-|
|--2/4-----2p0----0h2--0-0-0-0-0-2-2-----2-------2-----|
|---------------------2--2-2-2-2-0-0----0-----0--------|
|---------------------3-----3--3-----------------------|
|------------------------------------------------------|

|-------3-3--------------------|
|-1/3--0-0---------------0-0---|
|--2/4-0-----0-0----0-0---0-0--|
|----------0-0-0-0--0-0-0-0-0--|
|-----------3----1h2-----------|
|------------------------------|
Related for Man Of Constant Sorrow tab
×
Best way to learn
"Man Of Constant Sorrow"