Song name
# A B C D E F G H I J K L M N O P Q R S T U V W X Y Z

November Blessing - Haunt Me tab

hey this is my first tab. this is just by ear but its pretty much spot on.

Intro
------------------------------------------------------------------------|
--------------------0---------------------------------------------------|
-------0-----0----0--------0-----0--------------------------------------|(x2)
-----2-----2----2--------2-----2------2--0--2--0------------------------|
---2-----3----0--------2-----3------0-----------------------------------|
-0-------------------0--------------------------------------------------|


------------------------------------------------------------------------|
--------------------0----------------------0----------------------------|
-------0-----0----0--------0-----0-------0------------------------------|
-----2-----2----2--------2-----2-------2--------------------------------|(x2)
---2-----3----0--------2-----3-------0----------------------------------|
-0-------------------0--------------------------------------------------|


----------------------------------------------|
------0---------------0-----0-----------------|
------0--------0----0-------0--------0--------| (x2)
------2------2----2---------0------2----------|
---2--2----3----0--------2--2----3------------|
-0----0----------------0----0-----------------|


----------------------------------------------------|
-0-0-----0-0------------0-0----0-0----0-0-----------|
-0-0-----0-0------------0-0----0-0----0-0-----------| (x2)
-2-2-----2-2------------2-2----2-2----2-2-----------|
-2-2-----3-3------------2-2----3-3----0-0-----------|
-0-0-----0-0------------0-0----0-0----0-0-----------|


im lazy so im not gonna do ALL the strumming. just listen and you can figure it out
----------------------------------------------------|
-0-0-----0-0------------0-0----0-0----0-0-----------|
-0-0-----0-0------------0-0----0-0----0-0-----------| (x2)
-2-2-----2-2------------2-2----2-2----2-2-----------|
-2-2-----3-3------------2-2----3-3----0-0-----------|
-0-0-----0-0------------0-0----0-0----0-0-----------|


after this just pretty much repeat from the beginning. enjoy 
Tap to rate this tab
# A B C D E F G H I J K L M N O P Q R S T U V W X Y Z