Song name
# A B C D E F G H I J K L M N O P Q R S T U V W X Y Z

Nujabes - Aruarian Dance tab

-------------------------------------------------------------------------------
			     Aruarian Dance - Nujabes
-------------------------------------------------------------------------------
Tabbed by: Sean Kim
Email: makotokim@hotmail.com

Tuning: Drop D

Intro:

e|---6-----------6------------4/9\6----6-------------------------------------|
B|---4--------------4-------------------------4---9------6-----7-------------|
G|---4--------4-------4---------------------4----------6--------------8------|
D|---4-----4------------4-3---------------4----------6--------------9--------|
A|------------------------4----------------------------------------9---------|
E|-------------------------------------6----------8------------9-------------|

e|---------------------------------------------------------------------------|
B|---9---------------------4----------------------2/7\6----------------------|
G|------8---------------3--3--3--1-----------2-------------------------------|
D|---------9------------4-------------------1--------------------------------|
A|-----------8-------4---------------------2---------------------------------|
E|----------------4----------------------------------------------------------|

Main Riff:

e|----6--------6--------------6--------6--------------------|
B|-------------4-----------------------3--------------------|
G|----------3--3--4-----------------3--4--4-----------------|
D|----------4--------4--------------4--------4--------------|  X 4
A|-------4--------------4--------4--------------4-----------|
E|----4-----------------------4-----------------------------|

e|----6--------6--------------4/9\6--6--------6--------------4/9\6-----------|
B|-------------6------------------------------6------------------------------|
G|-------------8---8--------------------------8---8--------------------------|
D|----------8--8------8--------------------8--8------8-----------------------|
A|-------6---------------9\8------------6---------------9\8------------------|
E|----6------------------------------6---------------------------------------|

e|-----------6-----------6-----------4-----------4-----------2-----------2---|
B|--------4-----------4-----------2-----------2-----------0-----------0------|
G|-----4-----------4-----------3-----------3-----------1-----------1---------|
D|--4-----------4-----------3-----------3-----------1-----------1------------|
A|---------------------------------------------------------------------------|
E|---------------------------------------------------------------------------|

e|------------------11-------------------------------------------------------|
B|-----------6---------------------------------------------------------------|
G|--------3-------8----------------------------------------------------------|
D|-----4---------------------------------------------------------------------|
A|--4------------------------------------------------------------------------|
E|---------------------------------------------------------------------------|

e|----6--------6--------------4/9\6--6--------6--------------4/9\6-----------|
B|-------------6------------------------------6------------------------------|
G|-------------8---8--------------------------8---8--------------------------|
D|----------8--8------8--------------------8--8------8-----------------------|  X 1.5
A|-------6---------------9/8------------6---------------9/8------------------|
E|----6------------------------------6---------------------------------------|

e|-----------6-----------6-----------4-----------4-----------6-----------6---|
B|--------4-----------4-----------2-----------2-----------4-----------4------|
G|-----4-----------4-----------3-----------3-----------4-----------4---------|
D|--4-----------4-----------3-----------3-----------4-----------4------------|
A|---------------------------------------------------------------------------|
E|---------------------------------------------------------------------------|

e|-----------4-----------4---------------------------------------------------|
B|--------2-----------2------------------------------------------------------|
G|-----3-----------3---------------------------------------------------------|
D|--3-----------3------------------------------------------------------------|
A|---------------------------------------------------------------------------|
E|---------------------------------------------------------------------------|

e|----6--------6--------------4/9\6--6--------6--------------4/9\6-----------|
B|-------------6------------------------------6------------------------------|
G|-------------8---8--------------------------8---8--------------------------|
D|----------8--8------8--------------------8--8------8-----------------------|  X 1.5
A|-------6---------------9\8------------6---------------9\8------------------|
E|----6------------------------------6---------------------------------------|

e|-----------6-----------6-----------4-----------4-----------2-----------2---|
B|--------4-----------4-----------2-----------2-----------0-----------0------|
G|-----4-----------4-----------3-----------3-----------1-----------1---------|
D|--4-----------4-----------3-----------3-----------1-----------1------------|
A|---------------------------------------------------------------------------|
E|---------------------------------------------------------------------------|

e|------------------11-------------------------------------------------------|
B|-----------6---------------------------------------------------------------|
G|--------3-------8----------------------------------------------------------|
D|-----4---------------------------------------------------------------------|
A|--4------------------------------------------------------------------------|
E|---------------------------------------------------------------------------|


e|----6----------------------------------------------------------------------|
B|---------------------------------------------------------------------------|
G|-------------8---8------------------8-----------10-------------------------|
D|----------8---------6------------8-----------8-----------------------------| X 4
A|-------6---------------6------6-----------8--------------------------------|
E|----6----------------------6-----------8-----------------------------------|

(muted)
e|----6--------6--------------4/9\6--6--------6--------------4/9\6-----------|
B|-------------6------------------------------6------------------------------|
G|-------------8---8--------------------------8---8--------------------------|
D|----------8--8------8--------------------8--8------8-----------------------|  X 1.5
A|-------6---------------9\8------------6---------------9\8------------------|
E|----6------------------------------6---------------------------------------|
(end mute)

""
e|-----------6-----------6-----------4-----------4-----------6-----------6---|
B|--------4-----------4-----------2-----------2-----------4-----------4------|
G|-----4-----------4-----------3-----------3-----------4-----------4---------|
D|--4-----------4-----------3-----------3-----------4-----------4------------|
A|---------------------------------------------------------------------------|
E|---------------------------------------------------------------------------|

e|-----------4-----------4-----------6-----------6-----------4-----------4---|
B|--------2-----------2-----------4-----------4-----------2-----------2------|
G|-----3-----------3-----------4-----------4-----------3-----------3---------|
D|--3-----------3-----------4-----------4-----------3-----------3------------|
A|---------------------------------------------------------------------------|
E|---------------------------------------------------------------------------|

e|-----------2-----------2----------------11---------------------------------| Quotes X 2
B|--------0-----------0--------------6---------------------------------------|
G|-----1-----------1--------------3-----8------------------------------------|
D|--1-----------1--------------4---------------------------------------------| 
A|--------------------------4------------------------------------------------|
E|---------------------------------------------------------------------------| ""

""
(muted)
e|----6--------6--------------4/9\6--6--------6--------------4/9\6-----------|
B|-------------6------------------------------6------------------------------|
G|-------------8---8--------------------------8---8--------------------------|
D|----------8--8------8--------------------8--8------8-----------------------|  X 1.5
A|-------6---------------9\8------------6---------------9\8------------------|
E|----6------------------------------6---------------------------------------|
(end mute)

e|-----------6-----------6-----------4-----------4-----------6-----------6---|
B|--------4-----------4-----------2-----------2-----------4-----------4------|
G|-----4-----------4-----------3-----------3-----------4-----------4---------|
D|--4-----------4-----------3-----------3-----------4-----------4------------|
A|---------------------------------------------------------------------------|
E|---------------------------------------------------------------------------|

e|-----------4-----------4---------------------------------------------------|Quotes X 3
B|--------2-----------2------------------------------------------------------|
G|-----3-----------3---------------------------------------------------------|
D|--3-----------3------------------------------------------------------------|
A|---------------------------------------------------------------------------|
E|---------------------------------------------------------------------------|""

(muted)
e|----6--------6--------------4/9\6--6--------6--------------4/9\6-----------|
B|-------------6------------------------------6------------------------------|
G|-------------8---8--------------------------8---8--------------------------|
D|----------8--8------8--------------------8--8------8-----------------------|  X 1.5
A|-------6---------------9\8------------6---------------9\8------------------|
E|----6------------------------------6---------------------------------------|
(end mute)

e|-----------6-----------6-----------4-----------4-----------2-----------2---|
B|--------4-----------4-----------2-----------2-----------0-----------0------|
G|-----4-----------4-----------3-----------3-----------1-----------1---------|
D|--4-----------4-----------3-----------3-----------1-----------1------------|
A|---------------------------------------------------------------------------|
E|---------------------------------------------------------------------------|

e|------------------11-------------------------------------------------------|
B|-----------6---------------------------------------------------------------|
G|--------3-------8----------------------------------------------------------|
D|-----4---------------------------------------------------------------------|
A|--4------------------------------------------------------------------------|
E|---------------------------------------------------------------------------|

************************************

| /   slide up
| \   slide down
| h   hammer-on
| p   pull-off
| ~   vibrato
| +   harmonic
| x   Mute note
| b   Bend
| pb  Pre-bend
| br  Bend release
| pbr Pre-bend release
| brb Bend release bend

************************************
Tap to rate this tab
# A B C D E F G H I J K L M N O P Q R S T U V W X Y Z