Song name
# A B C D E F G H I J K L M N O P Q R S T U V W X Y Z

12 Stones - Shadows tab

Shadows by 12 Stones
Album: Potter's Field
Tabbed by: The Clincher

Drop C tuning            nobody could get it right so here you go

intro/bridge(interlude)  /play with distortion
D/-------------------------|
A/-------------------------|
F/-----7-7-----7-7-----5-5-|
C/-0-0-X-X-0-0-X-X-----X-X-|
G/-0-0-5-5-0-0-5-5-0-0-3-3-|
C/-0-0-----0-0-----0-0-----|

verse
--------------------------------------------------------------------|
--------------------------------------------------------------------|
--------------------------------------------------------------------|
----------12-10-----------9-9h10-----------12-10-----------9h10-9---|
--9-9-9----------9-9-9-------------9-9-9-----------9-9-9----------9-|
-0-0-0-0-0------0-0-0-0-0--0------0-0-0-0-0-------0-0-0-0-0---------|


Pre-Chorus
-------------------------------------|
-------------------------------------|
-11-11-11-11-9-9-9--7-7--------------|
-x--x--x--x--x-x-x--x-x--3-3-3-3-5-5-|
-9--9--9--9--7-7-7--5-5--3-3-3-3-5-5-|
-------------------------3-3-3-3-5-5-|

Chorus
-------------------------------------------|
-------------------------------------------|
-------7-7-------7-7-----------------------|
-0-0-0-x-x-0-0-0-x-x--5-3-3-0--3-3-3-3-5-5-|
-0-0-0-5-5-0-0-0-5-5--5-3-3-0--3-3-3-3-5-5-|
-0-0-0-----0-0-0------5-3-3-0--3-3-3-3-5-5-|

end song with
---|
---|                                           x- deaden
-7-|                                           h- hammer-on
-x-|                                           
-5-|      
---|
Tap to rate this tab
 
# A B C D E F G H I J K L M N O P Q R S T U V W X Y Z