Song name
# A B C D E F G H I J K L M N O P Q R S T U V W X Y Z

28 Days - Sucker tab

28 Days, Sucker.
Tabbed by Brett Massingham, kornfreak_40@hotmail.com.
  
Artist: 28 Days
Title: Sucker
Album: Upstyledown
Submitted by: Brett Massingham
(kornfreak_40@hotmail.com)

Intro:

E|----------------------------|
B|----------------------------|
G|----------------------------|
D|----------------------------|      x 2
A|----------------------------|
E|---------------------2-2----|

E|----------------------------|
B|----------------------------|
G|----------------------------|
D|----------------------------|     x 4
A|----------------------------|
E|------------2-2-2-2-2-2-2-2-|

E|----------------------------|
B|----------------------------|
G|----------------------------|
D|4-4---4-4---4-4---7-7---5---|
A|4-4---4-4---4-4---7-7---5---|
E|2-2---2-2---2-2---5-5---3---|

I don't know the harmonic.

Verse: Quiet guitar noises playing with same three notes.

When I get the rest of it I'll put it here.

 
:: Ultimate Guitar Archive :: 
http://www.ultimate-guitar.com 



Tap to rate this tab
# A B C D E F G H I J K L M N O P Q R S T U V W X Y Z