Song name
# A B C D E F G H I J K L M N O P Q R S T U V W X Y Z

30 Seconds To Mars - Night Of The Hunter tab

30 Seconds to Mars                                     30 Seconds to Mars

This Is war                                                   This Is war

2010                                                                 2010


                          "Night Of The Hunter"




INTRO:


La nuit du chasseur


   D#m          F#             G#m           A#m
E:-----------------------------------------------------------------|
B:-----------------------------------------------------------------|
G:-8------------6--------------4-----------------------------------|
D:-----------------------------------------------------------------|
A:-------------------------------------------13-s1-----------------|
E:-----------------------------------------------------------------|

then...

E:---------9-6----9--6-6-----7-6------------|
B:-----7--------9--------9-7----------------|
G:-8-8---8----------------------------------|
D:------------------------------------------|x4
A:------------------------------------------|
E:------------------------------------------|
(at the same time)
   D#m       F#       G#m      A#m                    FX
E:------------------------------------------|(wah;overdrive;echo
B:------------------------------------------|slow attack... something like that)
G:------------------------------------------|x2
D:---4---3-----4---3----4---3----4---3------|
A:-6---6-------------------------------4-6--|
E:-----------2---2----4---4----6---6--------|

1st VERSE:
   D#m                D#m
E:------------------------------------------|
B:-----9-9-9-9-8-8-8------9-9-9-9-8-8-8-----|
G:------------------------------------------|
D:---8------------------8-------------------|
A:-6------------------6---------------------|
E:------------------------------------------|
   D#m                D#m                                    
E:------------------------------------------|
B:-----9-9-9-9-8-8-8------9-9-9-9-8-8-8-----|
G:------------------------------------------|
D:---8------------------8-------------------|
A:-6------------------6---------------------|
E:------------------------------------------|
   I was born of the womb of a poisonous man
   Beaten and broken and chased from the land
   B                    C#                   D#m
E:---------------------------------------------------------------------------------|
B:---------------------------------------------------------------------------------|
G:---------------------------------------------------8-8-8-8-8-8-8-8---------------|
D:------4--4-4---------------6--6-6---------------8--------------------------------|
A:-2--2-----------------4--4-----------------6-(6)---------------------------------|
E:---------------------------------------------------------------------------------|
   But I rise up above it, high up above it and see

(muted guitar)
   D#m                                                   D#m
E:----------14-14-14-14-14--13-13-13-------------------------------------------------------------|
B:-11-11-11--------------------------------------------------------------------------------------|
G:----------------------------------11-11-11-11-11-------------------------11b-11b-11--11--11....|
D:------------------------------------------------13-13-13-13-13-13-13-13b-13b-13b-13b-13b-13b...|
A:-----------------------------------------------------------------------------------------------|
E:-----------------------------------------------------------------------------------------------|
   I was hung from a tree made of tongues of the weak   The branches, the bones of the liars,
   B                  	    C#                  D#m                                    the thieves
E:----------14-14-14-14-14--13-13-13-------------------------------------------------------------|
B:-11-11-11--------------------------------------------------------------------------------------|
G:----------------------------------11-11-11-11-11--13---13---13b---13b----13b-13b-13b-13b-13b...|
D:-----------------------------------------------------13--13b---13b---13b-13b-13b-13b-13b-13b...|
A:-----------------------------------------------------------------------------------------------|
E:-----------------------------------------------------------------------------------------------|
   Rise up above it,        high up above and   see

PRE - CHORUS:

(normal guitar)
   B                    C#                   D#m                                          F#
E:----------14-14-14-14-14--13-13-13-----------------------------------------------------------|
B:-11-11-11------------------------------------------------------------------------------------|
G:----------------------------------11-11-11-11-11--------------------------11--11--11--11....-|
D:-------------------------------------------------13-13-13-13-13-13-13-13b-13b-13b-13b-13b...-|
A:---------------------------------------------------------------------------------------------|
E:---------------------------------------------------------------------------------------------|
  Pray  to  your  god,  open  your  heart    Whatever  you  do, don't  be  afraid  of the dark
   B                           C#                                            
E:----------14-14-14-14-14--13-13-13---------------|
B:-11-11-11----------------------------------------|
G:---------------------------------11-11-11-11-11--|
D:-------------------------------------------------|
A:-------------------------------------------------|
E:-------------------------------------------------|
  Cover your eyes, the devil's inside

CHORUS:

  (tremolo)
    D#m    F#      G#m    A#m
E:------------------------------------------|
B:------------------------------------------|
G:--8~~~~~~13~~~~~~6~~~~~~11~~~~10~~~~------|
D:------------------------------------------|
A:------------------------------------------|
E:------------------------------------------|
(At the same time)
E:------------------------------------------|
B:------------------------------------------|
G:------------------------------------------|
D:---4---3-----4---3----4---3----4---3------|
A:-6---6-------------------------------4-6--|
E:-----------2---2----4---4----6---6--------|
 One night of the hunter,
                  one day I will get revenge

    D#m    F#      G#m    A#m
E:------------------------------------------|
B:------------------------------------------|
G:--8~~~~~~13~~~~~~6~~~~~~15b~~~~~~---------|
D:------------------------------------------|
A:------------------------------------------|
E:------------------------------------------|
(At the same time)
E:------------------------------------------|
B:------------------------------------------|
G:------------------------------------------|
D:---4---3-----4---3----4---3----4---3------|
A:-6---6-------------------------------4-6--|
E:-----------2---2----4---4----6---6--------|
 One night to remember, 
                  one day it'll all just end

   D#m       F#        G#m           A#m
E:---------9-6----9--6-6-----7-6------------|
B:-----7--------9--------9-7----------------|
G:-8-8---8----------------------------------|
D:------------------------------------------|x4
A:------------------------------------------|
E:------------------------------------------|
(At the same time)
E:------------------------------------------|
B:------------------------------------------|
G:------------------------------------------|
D:---4---3-----4---3----4---3----4---3------|x2
A:-6---6-------------------------------4-6--|
E:-----------2---2----4---4----6---6--------|
  oh...


2nd Verse:

Un, deux, trois, cinq
    D#m                                         D#m
E:--------------------------------------------------------------------------------------| I
B:--------------------------------------------------------------------------------------| I
G:--8-8s10-10s11-11s13---s8-8s10-10s11-11s15----s8-8s10-10s11-13-11-10-11-10-8s-6-8s-10-| I
D:--------------------------------------------------------------------------------------| I
A:--------------------------------------------------------------------------------------| I
E:--------------------------------------------------------------------------------------| I
 1. Blessed by a bitch from a bastard's seed    Pleasure to meet you but better to bleed  I
 2.  Skinned her alive, ripped her apart         Scattered her ashes, buried her heart    I  X2
    B                 C#                D#m                                               I
E:--------------------------------------------------------------------------------------| I
B:--------------------------------------------------------------------------------------| I
G:--8-8s10-10s11-11s13---s10-10s11-13p11-13s15--s8-8s10-10s11-13-11-10-11-10-8s-6-8s-10-| I
D:--------------------------------------------------------------------------------------| I
A:--------------------------------------------------------------------------------------| I
E:--------------------------------------------------------------------------------------| I
 1. Rise,      I'll rise,      I'll rise...       
 2. Rise up above it, high up above and see


2nd PRE - CHORUS:

(same as 1st Pre - Chorus)

              B            C#
Pray to your god, open your heart
              D#m                       F#
Whatever you do, don't be afraid of the dark
            B            C#
Cover your eyes, the devil inside


2nd CHORUS:

(same as 1st Chorus)            
    D#m          F#      G#m          A#m
One night of the hunter, one day I will get revenge
    D#m          F#      G#m          A#m
One night to remember, one day it'll all just end
    D#m          F#      G#m          A#m
  Ohh..

BRIDGE:

   B               C#              F#              B
E:-----------------------------------------------------------------|
B:-----------------------------------------------------------------|
G:-8p6-8p6-8p6-8p6-8p6-8p6-8p6-----8p6-8p6-8p6-8p6-8p6-8p6-8p6-----|
D:-----------------------------------------------------------------|
A:-----------------------------------------------------------------|
E:-----------------------------------------------------------------|

   B               C#              F#              B
E:-----------------------------------------------------------------|
B:-----------------------------------------------------------------|
G:-8p6-8p6-8-8-8p6-8p6-8p6-8p6-----8p6-8p6-8p6-8p6-8p6-8p6-8p6-----|
D:-----------------------------------------------------------------|
A:-----------------------------------------------------------------|
E:-----------------------------------------------------------------|


E:-----------------------------------9-------------9-11------------|
B:-----9-7-----------9-7-----------9-------------9-----------------|
G:-6-8-----8-6---6-8-----8-6---6-8-----8-6---6-8-------------------|x2
D:-----------------------------------------------------------------|
A:-----------------------------------------------------------------|
E:-----------------------------------------------------------------|
  Honest to God, I'll break your heart
                             Tear you to pieces and rip you apart
  Honest to God, I'll break your heart
                             Tear you to pieces and rip you apart

                     * * (these are really silent at first)
E:---------9-6----9--6-6-----7-6------------|
B:-----7--------9--------9-7----------------|
G:-8-8---8----------------------------------|
D:------------------------------------------|x9
A:------------------------------------------|
E:------------------------------------------|
  Honest to God, I'll break your heart
         Tear you to pieces and rip you apart
  Honest to God, I'll break your heart
         Tear you to pieces and rip you apart
  Oh...

E:--------------------------------------------------------------------------------------|
B:--------------------------------------------------------------------------------------|
G:--s6-6-6-6-6-6-6-6-s8-8-8-8-8-8-8-8-s10-10-10-10-10-10-10-10-s11-11-11-11-11-11-11-11-|
D:--------------------------------------------------------------------------------------|
A:--------------------------------------------------------------------------------------|
E:--------------------------------------------------------------------------------------|
  Oh...


OUTRO:

    D#m           F#          G#m         A#m
 One night of the hunter, one day I will get revenge

E:------------------------------------------|
B:------------------------------------------|
G:------------------------------------------|
D:---4---3-----4---3----4---3----4---3------|x5
A:-6---6-------------------------------4-6--|
E:-----------2---2----4---4----6---6--------|
     D#m          F#         G#m         A#m
 One night to remember, one day it'll all just end


E:---------9-6----9--6-6-----7-6------------|
B:-----7--------9--------9-7----------------|
G:-8-8---8----------------------------------|
D:------------------------------------------|x4
A:------------------------------------------|
E:------------------------------------------|
  Oh... (all just end)

E:---------9-6----9--6-6-----7-6------------|
B:-----7--------9--------9-7----------------|
G:-8-8---8----------------------------------|
D:------------------------------------------|x4
A:------------------------------------------|
E:------------------------------------------|
(at the same time)
E:-11-11-11--14-14--13----------11-11-11--14-14--13b---------------|
B:----------------------14-----------------------------------------|
G:-----------------------------------------------------------------|x2
D:-----------------------------------------------------------------|
A:-----------------------------------------------------------------|
E:-----------------------------------------------------------------|

Je te crains comme le diable



One great song!!!

Epic album.
Tap to rate this tab
 
# A B C D E F G H I J K L M N O P Q R S T U V W X Y Z