Song name
# A B C D E F G H I J K L M N O P Q R S T U V W X Y Z

311 - Existential Hero tab

No one has tabbed this gem yet, and I was dying to know how to play it, so I took the 
liberty in tabbing it for you guys real quick. First tab I have ever done. The notes are 
accurate, but you will have to listen the song for strumming. Enjoy

e|-----------------------------------------------|
B|-----------------------------------------------|
G|-6--6-6-6---6--6-6-6---8--8-8-8---8--8-8-8-----|
D|-6--6-6-6---6--6-6-6---8--8-8-8---8--8-8-8-----|   X 1
A|-4--4-4-4---4--4-4-4---6--6-6-6---6--6-6-6-----|
E|-4--4-4-4---4--4-4-4---6--6-6-6---6--6-6-6-----|
      x x x      x x x      x x x      x x x

e|-----------------------------------------------|
B|-----------------------------------------------|
G|-----------------------------------------------|
D|-----------------------------------------------|   x 12
A|--------------------------------------------4--|
E|-0-3-6-4-----6-4-6-3------8-6-4-4-----8-6-4-4--|

Main Riff ( mainly all low E string, you can figure out the occasional palm mutes and 
when to add the 4th fret of the A string)


e|-----------------------------------------------------|
B|-----------------------------------------------------|
G|-----------------------------------------------------|
D|-3--3-----3--3-----3-----3---3------3-2-1-0----------|
A|-----------------------------------------------------|
E|--1--1--1--1-----1---1-1---1----1-1------------------|
    x  x  x  x     x   x x   x    x x

e|--------------------------------------------------------------|
B|--------------------------------------------------------------|
G|--------------------------------------------------------------|
D|--------------------------------------------------------------|   x 4
A|-4----4--------4---4-------6----6----6------6---6-------------|
E|---4-----4---4---4-----------3----3-------3---3---------------|
     x     x   x   x           x    x       x   x

(Notes are right, but not sure how to tab it accurately, listen and you can figure it out)


e|-----------------------------------------------|
B|-----------------------------------------------|
G|-6--6-6-6---6--6-6-6---8--8-8-8---8--8-8-8-----|
D|-6--6-6-6---6--6-6-6---8--8-8-8---8--8-8-8-----|  X 1
A|-4--4-4-4---4--4-4-4---6--6-6-6---6--6-6-6-----|
E|-4--4-4-4---4--4-4-4---6--6-6-6---6--6-6-6-----|
      x x x      x x x      x x x      x x x


e|-----------------------------------------------------|
B|-----------------------------------------------------|
G|-2---6---6---4---6---8-------------------------------|
D|-3---7---7---5---7---8-------------------------------|X 4
A|-3---7---7---5---7---6-------------------------------|
E|-1---5-0-5---3---5---6-------------------------------|

Outro (Listen to figure out the strumming)
e|------------------------------------------------------------------|
B|--8--10--11--10---15----------------------------------------------|
G|------------------------------------------------------------------|
D|------------------------------------------------------------------|
A|------------------------------------------------------------------|
E|------------------------------------------------------------------|
Tap to rate this tab
 
# A B C D E F G H I J K L M N O P Q R S T U V W X Y Z