Guitaretab - guitar tabs
Song name
# A B C D E F G H I J K L M N O P Q R S T U V W X Y Z

Offspring - Original Prankster tab

Title: Original Prankster
Artist: The Offspring

Tuning: Standard - EADGBe

Key: 	/ = slide up
	\ = slide down
        PM = palm mute
        Sr PM = slowly release palm mute
        Sa PM = slowly apply palm mute


Intro
e|--------------------------------------------------------------|
B|--------------------------------------------------------------|
G|-----------------------------2--------------------------------|
D|-----------------------------------------------------------0--|
A|--0-0-3-0-0---------0-0-3-0-----0-3-0---------0-0-3-0-0-------|
E|--------------------------------------------------------------|

e|-------------------------------------|
B|-------------------------------------|
G|------------2------------------------|
D|-----------------------0--0----0-----|
A|--0-0-3-0------0--0---------3-----3--|
E|-------------------------------------|

e|--------------------------------------|
B|--------------------------------------|
G|------------2-------------------------|
D|---------------------2--0--0----0-----| x3
A|--0-0-3-0------0-------------3-----3--|
E|--------------------------------------|

e|---------------------------|
B|---------------------------|
G|------------2--------------|
D|---------------------2--0--|
A|--0-0-3-0------0-----------|
E|---------------------------|


Verse x3
e|----------------------------------------|
B|----------------------------------------|
G|------------2---------------------------|
D|---------------------2--0--0----0-------|
A|--0-0-3-0------0-------------3-----3----|
E|----------------------------------------|
   |---------------PM---------------------|


Lead into
e|---------------------------------------|
B|---------------------------------------|
G|--------------------9-9-9-9-9-9-9-9----|
D|--5-5-5-5-5-5-5-5---9-9-9-9-9-9-9-9----|
A|--5-5-5-5-5-5-5-5---7-7-7-7-7-7-7-7----|
E|--3-3-3-3-3-3-3-3----------------------|
     |-----PM------|   |----Sr-PM--------|


Verse x3
e|----------------------------------------|
B|----------------------------------------|
G|------------2---------------------------|
D|---------------------2--0--0----0-------|
A|--0-0-3-0------0-------------3-----3----|
E|----------------------------------------|
   |---------------PM---------------------|


Lead into
e|---------------------------------------|
B|---------------------------------------|
G|--------------------9-9-9-9-9-9-9-9----|
D|--5-5-5-5-5-5-5-5---9-9-9-9-9-9-9-9----|
A|--5-5-5-5-5-5-5-5---7-7-7-7-7-7-7-7----|
E|--3-3-3-3-3-3-3-3----------------------|
     |-----PM------|   |----Sr-PM--------|


Pre-Chorus x3
e|----------------------------------------|
B|----------------------------------------|
G|----------------------------------------|
D|--7--10--14--13--12--12-12--10--12--10--|
A|--7--10--14--13--12--12-12--10--12--10--|
E|--5---8--12--11--10--10-10---8--10---8--|


Lead into
e|---------------------------------------|
B|---------------------------------------|
G|--------------------9-9-9-9-9-9-9-9----|
D|--5-5-5-5-5-5-5-5---9-9-9-9-9-9-9-9----|
A|--5-5-5-5-5-5-5-5---7-7-7-7-7-7-7-7----|
E|--3-3-3-3-3-3-3-3----------------------|
     |-----PM------|   |----Sr-PM--------|


Chorus
e|--------------------------|
B|--------------------------|
G|---------------7-7/12-12--|
D|--7--7--7-7----7-7/12-12--| x3
A|--7--7--7-7----5-5/10-10--|
E|--5--5--5-5---------------|

e|---------------------------------------|
B|---------------------------------------|
G|--12\7--12\7---------------------------|
D|--12\7--12\7---12-12-12-12-12--13--14--|
A|--10\5--10\5---12-12-12-12-12--13--14--|
E|---------------10-10-10-10-10--11--12--|


Pre-Verse
e|--------------------------------------|
B|--------------------------------------|
G|------------2-------------------------|
D|---------------------2--0--0----0-----| x3
A|--0-0-3-0------0-------------3-----3--|
E|--------------------------------------|

e|---------------------------|
B|---------------------------|
G|------------2--------------|
D|---------------------2--0--|
A|--0-0-3-0------0-----------|
E|---------------------------|


Verse x3
e|----------------------------------------|
B|----------------------------------------|
G|------------2---------------------------|
D|---------------------2--0--0----0-------|
A|--0-0-3-0------0-------------3-----3----|
E|----------------------------------------|
   |---------------PM---------------------|

[ Tab from: http://www.guitaretab.com/o/offspring/24126.html ]
Lead into
e|---------------------------------------|
B|---------------------------------------|
G|--------------------9-9-9-9-9-9-9-9----|
D|--5-5-5-5-5-5-5-5---9-9-9-9-9-9-9-9----|
A|--5-5-5-5-5-5-5-5---7-7-7-7-7-7-7-7----|
E|--3-3-3-3-3-3-3-3----------------------|
     |-----PM------|   |----Sr-PM--------|


Verse x3
e|----------------------------------------|
B|----------------------------------------|
G|------------2---------------------------|
D|---------------------2--0--0----0-------|
A|--0-0-3-0------0-------------3-----3----|
E|----------------------------------------|
   |---------------PM---------------------|


Lead into
e|---------------------------------------|
B|---------------------------------------|
G|--------------------9-9-9-9-9-9-9-9----|
D|--5-5-5-5-5-5-5-5---9-9-9-9-9-9-9-9----|
A|--5-5-5-5-5-5-5-5---7-7-7-7-7-7-7-7----|
E|--3-3-3-3-3-3-3-3----------------------|
     |-----PM------|   |----Sr-PM--------|


Pre-Chorus x3
e|----------------------------------------|
B|----------------------------------------|
G|----------------------------------------|
D|--7--10--14--13--12--12-12--10--12--10--|
A|--7--10--14--13--12--12-12--10--12--10--|
E|--5---8--12--11--10--10-10---8--10---8--|


Lead into
e|---------------------------------------|
B|---------------------------------------|
G|--------------------9-9-9-9-9-9-9-9----|
D|--5-5-5-5-5-5-5-5---9-9-9-9-9-9-9-9----|
A|--5-5-5-5-5-5-5-5---7-7-7-7-7-7-7-7----|
E|--3-3-3-3-3-3-3-3----------------------|
     |-----PM------|   |----Sr-PM--------|


Chorus
e|--------------------------|
B|--------------------------|
G|---------------7-7/12-12--|
D|--7--7--7-7----7-7/12-12--| x3
A|--7--7--7-7----5-5/10-10--|
E|--5--5--5-5---------------|

e|---------------------------------------|
B|---------------------------------------|
G|--12\7--12\7---------------------------|
D|--12\7--12\7---12-12-12-12-12--13--14--|
A|--10\5--10\5---12-12-12-12-12--13--14--|
E|---------------10-10-10-10-10--11--12--|


Bridge
e|--------------------------------------------------------------|
B|--------------------------------------------------------------|
G|-----------------------------2--------------------------------|
D|-----------------------------------------------------------0--|
A|--0-0-3-0-0---------0-0-3-0-----0-3-0---------0-0-3-0-0-------|
E|--------------------------------------------------------------|

e|---------------------------------------|
B|---------------------------------------|
G|------------2--------------------------|
D|-----------------------0--0----0-------|
A|--0-0-3-0------0--0---------3-----3----|
E|---------------------------------------|
                |-------Sa-PM------------|

e|----------------------------------------|
B|----------------------------------------|
G|------------2---------------------------|
D|---------------------2--0--0----0-------|
A|--0-0-3-0------0-------------3-----3----|
E|----------------------------------------|
   |---------------PM---------------------|

e|--------------------------------------|
B|--------------------------------------|
G|------------2-------------------------|
D|---------------------2--0--0----0-----| x3
A|--0-0-3-0------0-------------3-----3--|
E|--------------------------------------|


Lead into
e|---------------------------------------|
B|---------------------------------------|
G|--------------------9-9-9-9-9-9-9-9----|
D|--5-5-5-5-5-5-5-5---9-9-9-9-9-9-9-9----|
A|--5-5-5-5-5-5-5-5---7-7-7-7-7-7-7-7----|
E|--3-3-3-3-3-3-3-3----------------------|
     |-----PM------|   |----Sr-PM--------|


Pre-Chorus x3
e|----------------------------------------|
B|----------------------------------------|
G|----------------------------------------|
D|--7--10--14--13--12--12-12--10--12--10--|
A|--7--10--14--13--12--12-12--10--12--10--|
E|--5---8--12--11--10--10-10---8--10---8--|


Chorus Altered
e|--------------------------|
B|--------------------------|
G|---------------7-7/12-12--|
D|--7--7--7-7----7-7/12-12--| x3
A|--7--7--7-7----5-5/10-10--|
E|--5--5--5-5---------------|

e|------------------------------|
B|------------------------------|
G|--12\7--12\7------------------|
D|--12\7--12\7---5-5-5-5-5-5----|
A|--10\5--10\5---5-5-5-5-5-5----|
E|---------------3-3-3-3-3-3----|
                |----PM---------|

e|---------------------------------------|
B|---------------------------------------|
G|--12\7--12\7---------------------------|
D|--12\7--12\7---12-12-12-12-12--13--14--|
A|--10\5--10\5---12-12-12-12-12--13--14--|
E|---------------10-10-10-10-10--11--12--|
Related for Original Prankster tab
Advertisement will be closed in 10 seconds