Guitaretab - guitar tabs
Song name
# A B C D E F G H I J K L M N O P Q R S T U V W X Y Z

Oh Sleeper - Vices Like Vipers tab

-----------------------------------------------------------------------------------------
                          Vices Like Vipers - oh, Sleeper
-----------------------------------------------------------------------------------------
Tabbed by: James Martyr
Email: on_the_otherside22@hotmail.com

Tuning: CGCFAD (drop c)

Intro (clean with overdrive)
Guitar 1
d|------------------------------------|
A|-----3~-----------------------------|
F|-------------3~------3~------3~-----|
C|--0-0---0-0-0---0-0-0---0-0-0---0---|x3
G|---0---0-0-0---0-0-0---0-0-0---0-0--|
C|------------------------------------|

d|------------------------------------|
A|-----3~------------3~---------------|
F|-------------3~----3~---------------|
C|--0-0---0-0-0---0--0~---------------|
G|---0---0-0-0---0-0-0~---------------|
C|------------------------------------|

Pre Verse
Guitar 1
d|--------------------------|
A|--------------------------|
F|---------10------10-------|
C|-0--------8-(x8)--7-(x16)-|x2
G|-0-(x8)---8-------8-------|
C|-0--------8-------7-------|

Guitar 2
d|--------------------------|
A|--------------------------|
F|--------------------------|
C|-0-------8------8---------|x2
G|-0-(x8)--8-(x8)-7-(x16)---|
C|-0-------8------7---------|

The sweeps
Guitar 1
   1 4 3 3 2 1  4 1 2 3 3 4 
d|-----------5-10p5---------|
A|---------6--------6-------|
F|-------7------------7-----|
C|-----7----------------7---|(x2)
G|-5h8--------------------8-|
C|--------------------------|

   1 4 3 3 2 1  4 1 2 3 3 4 
d|-----------5--9p5---------|
A|---------6--------6-------|
F|-------7------------7-----|
C|-----7----------------7---|(x2)
G|-5h8--------------------8-|
C|--------------------------|


    1  4 3 3 2 1  4  1 2 3 3 4
d|------------18-22p18----------|
A|----------19--------19--------|
F|--------20------------20------|
C|------20----------------20----|(x2)
G|-17h21--------------------21--|
C|------------------------------|

    1  4 3 3 2 1  4  1 2 3 3 4
d|------------18-21p18----------|
A|----------19--------19--------|
F|--------20------------20------|
C|------20----------------20----|(x1)
G|-17h21--------------------21--|
C|------------------------------|

    1  4 3 3 2 1  4  1 2 3 3 4
d|------------17-21p17-------------|
A|----------18--------18-----------|
F|--------19------------19------20/|
C|------19----------------19--19---|(x1)
G|-16h20--------------------20-----|
C|---------------------------------|

Guitar 2
d|--------------------------|
A|--------------------------|
F|--------------------------|
C|-0-------8------8---------|x2 During the sweeps
G|-0-(x8)--8-(x8)-7-(x16)---|
C|-0-------8------7---------|

Straight after the last arpeggio, 
the 20th fret slide, Guitar one plays this:  

Verse
Guitar 1  Ending varies
d|--------------------------------------------------------------------|
A|---------------6-6----------------------------------------x----x----|
F|---------------9-9----------------------------14-14-14-14-x-14-x----|
C|-2---2/7-3p0--------------------------7p0-----------------x----x-0--|x4
G|---0---------------------5p0-3h5s8------------13-13-13-13-x-13-x-0--|
C|-------------0-----0h2s3-----------3p0-----0---------------------0--|
     .         .                             .	

And Guitar 2 comes in at the 6/9 chord the first time and then follows the above:

Guitar 2
d|-------------------------------------------------------|
A|-6-6----------------------------10-10-10-10-x-10-x-----|
F|-9-9----------------------------------------x----x-----|
C|------------------------7p0------8--8--8--8-x--8-x-0---|
G|-----------5p0-3h5s8------------------------x----x-0---|
C|-----0h2s3-----------3p0-----0---------------------0---|
                               .
                              
Ending 1  Second time the riff is played this is the ending
Guitar 1
d|----------------------------------------------| 
A|----------------------------------------------|
F|--14-14-14-xx-14-xx-14-14-14-14--14-14-14-----|
C|----------------------------------------------|
G|--13-13-13-xx-13-xx-13-13-13-13--13-13-13-----|
C|------------------------------------------14\\|

Guitar 2
d|-------------------------------------------|
A|-------------------------------------------|
F|-------------------------------------------|
C|-------------------------------------------|
G|---8--8--8-xx--8-xx--8--8--8--8---8--8-----|
C|---8--8--8-xx--8-xx--8--8--8--8---8--8-----|

Ending 2  Fourth time the riff is played 
this is the ending for both guitars
d|-------------------------------------------| 
A|-------------------------------------------|
F|--14-14-14-xx-14-xx-14-14-14-14--14-14-14--|
C|-------------------------------------------|
G|--13-13-13-xx-13-xx-13-13-13-13--13-13-13--|
C|-------------------------------------------|

d|------------------------------------------------| 
A|------------------------------------------------|
F|--12-12-12-xx-12-xx-12-12-12-12--12-12-12-------|
C|------------------------------------------------|
G|--10-10-10-xx-10-xx-10-10-10-10--10-10-10-------|
C|-------------------------------------------12\\-|

Chorus
Both guitars
d|---------------------------------------------------------------|
A|---------------------------------------------------------------|
F|---------------------------------------------------------------|
C|-----------------------------------7-7-7-----------7-7-7-------|x4
G|-------5-5-5-----------3-3-------------------------------------|
C|-0-0-0-------3-3-3-5-5-----5-5-8-8-------8-8-8-8-8-------8-8-8-|

d|----------------------------------|
A|----------------------------------|
F|----------------------------------|
C|-----5-5-5-----------3-3-----2-2--|
G|----------------------------------|
C|-7-7-------7-7-7-5-5-----3-3------|

Verse 2
Guitar 2
d|--------------------------------------------------|
A|--------------------------------------------------|
F|--------------------------------------------------|
C|--------------------------------------------------|x2
G|-0-0------------00000000-0--------0------33332222-|
C|-0-0------------00000000-0--------0------33332222-|
                  ........                 ........

The second time this is played through guitar 1 comes in with this:

Guitar 1
d|-----------------------------------------------------|
A|-----------------------------------------------------|
F|-----------------------------------------------------|
C|-3---2---7---5-------------3---2---7---5-------------|x1
G|--0---0---0---0---00000000--0---0---0---0---33333333-|
C|---0---0---0---0--00000000---0---0---0---0--33333333-|
     .   .   .   .  ........   .   .   .   .  ........

d|-----------------------------------------------------|
A|-----------------------------------------------------|
F|-----------------------------------------------------|
C|-3---2---7---5-------------3---2---7---5-------------|x2
G|--0---0---0---0-------5-3---0---0---0---0-------5-3--|
C|---0---0---0---0-0h2s3-------0---0---0---0-0h2s3-----|
     .   .   .   .             .   .   .   .
Verse
Guitar 1  Ending varies
d|--------------------------------------------------------------------|
A|---------------6-6----------------------------------------x----x----|
F|---------------9-9----------------------------14-14-14-14-x-14-x----|
C|-2---2/7-3p0--------------------------7p0-----------------x----x-0--|x2
G|---0---------------------5p0-3h5s8------------13-13-13-13-x-13-x-0--|
C|-------------0-----0h2s3-----------3p0-----0---------------------0--|
     .         .                             .

And Guitar 2 comes in at the 6/9 chord as before:
[ Tab from: http://www.guitaretab.com/o/oh-sleeper/101199.html ]
Guitar 2
d|-------------------------------------------------------|
A|-6-6----------------------------10-10-10-10-x-10-x-----|
F|-9-9----------------------------------------x----x-----|
C|------------------------7p0------8--8--8--8-x--8-x-0---|
G|-----------5p0-3h5s8------------------------x----x-0---|
C|-----0h2s3-----------3p0-----0---------------------0---|
                               .
                                            
Ending 2  played the second time at the end of the riff
Guitar 1
d|----------------------------------|
A|----------------------------------|
F|--14------15------14------15------|
C|-----(x7)----(x9)----(x7)----(x9)-|
G|--12------13------12------13------|
C|----------------------------------|

Guitar 2
d|-----------------------------------------|
A|-----------------------------------------|
F|--10-------10-------10------10------7----|
C|----(x8)----(x8)-----(x8)---(x4)----(x4)-|
G|--14-------12-------14------12------9----|
C|-----------------------------------------|


Bridge 
Guitar 1
d|------------------------------|
A|------------------------------|
F|--7-------14-------15---------|
C|---(x8)-----(x8)-----(x16)----|x2
G|--5-------12-------13b--------|
C|------------------------------|

Guitar 2
d|------------------------------|
A|------------------------------|
F|------------------------------|
C|--0--------8--------7---------|x2
G|--0-(x8)---8-(x8)---7-(x16)---|
C|--0--------8--------7---------|

Both guitars
d|---------------|
A|---------------|
F|---------------|
C|-0--0----------|x2
G|-0--0--5-5br~--|
C|-0--0----------|

Both Guitars (lots of effects)
d|---------------|
A|---------------|
F|--7-7/14-14~---|
C|---------------|x4
G|--5-5/12-12~---|
C|---------------|

Guitar 2
d|------------------------------|
A|------------------------------|
F|--7-7-7-7-7--7-7-7-7-7--7-7---|
C|------------------------------|x2
G|--5-5-5-5-5--5-5-5-5-5--5-5---|
C|------------------------------|

Interlude thingy
Guitar 1
d|--------------------------------------|
A|-10-10-10-------8-8-8-----------------|
F|--------------------------------------|
C|----------8(x13)------7(x9)-----------|x2
G|-----------------------------8-8-8-8--|
C|--------------------------------------|

Guitar 2
d|--------------------------------------|
A|--------------------------------------|
F|--------------------------------------|
C|-----------------------------0--------|x1
G|-----------------------------0--------|
C|-----------------------------0--------|

Now second time around guitar 2 does an artificial harmonic
across the 2nd fret, but the guitarist strikes it between his 
finger and the nut.

Chorus
Both guitars
d|---------------------------------------------------------------|
A|---------------------------------------------------------------|
F|---------------------------------------------------------------|
C|-----------------------------------7-7-7-----------7-7-7-------|x2
G|-------5-5-5-----------3-3-------------------------------------|
C|-0-0-0-------3-3-3-5-5-----5-5-8-8-------8-8-8-8-8-------8-8-8-|

Guitar 1
d|-------------------------|
A|-------------------------|
F|---------------14--------|
C|-----------------(x16)---|
G|----5-----3----13--------|
C|--0---3-5---5------------|

Guitar 2
d|-------------------------|
A|-------------------------|
F|-------------------------|
C|----------------8--------|
G|----5-----3-----8(x16)---|
C|--0---3-5---5---8--------|

Guitar 1
d|-------------------------------------|
A|-------------------------------------|
F|-------------------------------------|
C|-------------------------------------|
G|--------5-5-5-------------3-3--------|
C|--0-0-0-------3-3-3-5-5-5-----5-5----|

   1 4 3 3 2 1  4 1 2 3 3 4 
d|-----------5-10p5---------|
A|---------6--------6-------|
F|-------7------------7-----|
C|-----7----------------7---|(x2)
G|-5h8--------------------8-|
C|--------------------------|

   1 4 3 3 2 1  4 1 2 3 3 4 
d|-----------5--9p5---------|
A|---------6--------6-------|
F|-------7------------7-----|
C|-----7----------------7---|(x2)
G|-5h8--------------------8-|
C|--------------------------|

    1  4 3 3 2 1  4  1 2 3 3 4
d|------------18-22p18----------|
A|----------19--------19--------|
F|--------20------------20------|
C|------20----------------20----|(x2)
G|-17h21--------------------21--|
C|------------------------------|

    1  4 3 3 2 1  4  1 2 3 3 4
d|------------18-21p18----------|
A|----------19--------19--------|
F|--------20------------20------|
C|------20----------------20----|(x1)
G|-17h21--------------------21--|
C|------------------------------|

    1  4 3 3 2 1  4  1 2 3 3 4
d|------------17-21p17----------|
A|----------18--------18--------|
F|--------19------------19------|
C|------19----------------19----|(x1)
G|-16h20--------------------20--|
C|------------------------------|

Guitar 2
d|-------------------------------------------------------------------------|
A|-------------------------------------------------------------------------|
F|-------------------------------------------------------------------------|
C|----------------------------------8------7------8------7-----5-----3-----|
G|--------5-5-5-------------3-3-----8(x16)-7(x16)-8(x16)-7(x8)-5(x4)-3(x4)-|
C|--0-0-0-------3-3-3-5-5-5-----5-5-8------7------8------7-----5-----3-----|

Unbelievably RAD ultimate breakdown (outro)
Guitar 1
(pt 1)
d|--------10-----------12s17----10~-----------10-----------------5----|
A|--------------------------------------------------------------------|
F|---3s7----8----5h7s9------15s7---7~---3s7------8--------------3-3p0-|
C|--------------------------------------------------------------------|
G|--------------------------------------------------------------------|
C|-0-----0-----0----------------------0-----0-------0-0-10s8s7s3------|
   .     .     .                      .     .       . .
(pt 2)
d|--------10-----------12s17----10~-----------10---------------------|
A|-------------------------------------------------------------------|
F|---3s7----8----5h7s9------15s7---7~---3s7-----8--------------------|
C|-------------------------------------------------------------------|
G|------------------------------------------------------33333333-----|
C|-0-----0-----0----------------------0-----0------0-0--33333333-----|
   .     .     .                      .     .      . .  ........
(Pt 3)
d|--------10-----------12s17----10~-----------10-----------------5----|
A|--------------------------------------------------------------------|
F|---3s7----8----5h7s9------15s7---7~---3s7------8--------------3-3p0-|
C|--------------------------------------------------------------------|
G|--------------------------------------------------------------------|
C|-0-----0-----0----------------------0-----0-------0-0-10s8s7s3------|
   .     .     .                      .     .       . .
(Pt 4)
d|--------10-----------12s17----10~-----------10-------------12s22p18--21p17------------|
A|--------------------------------------------------------------------------19----------|
F|---3s7----8----5h7s9------15s7---7~---3s7------8-----5h7s9------------------20--------|
C|------------------------------------------------------------------------------20---0-0|
G|--------------------------------------------------------------------------------21-0-0|
C|-0-----0-----0----------------------0-----0------0-0-------------------------------0-0|
   .     .     .                      .     .      . .
Guitar 2
d|---------------------------------|
A|---------------------------------|
F|---------------------------------|
C|-0-0-----------0---0-------------|x2
G|-0-0-----------0---0--33332222---|
C|-0-0-----------0---0--33332222---|
                        ........
d|------------------------------------|
A|------------------------------------|
F|------------------------------------|
C|-0-0---------------0---0------------|x1
G|-0-0------00000000-0---0--33332222--|
C|-0-0------00000000-0---0--33332222--|
            ........        ........

d|------------------------------------|
A|------------------------------------|
F|------------------------------------|
C|-0-0-----------0---0-----------0-0--|x1
G|-0-0-----------0---0--33332222-0-0--|
C|-0-0-----------0---0--33332222-0-0--|
                        ........

After one update I've just corrected some 
of the little mistakes I made and am still 
open for suggestions if you have them.



| /  slide up
| \  slide down
| \\ slide all the way down
| h  hammer-on
| p  pull-off
| s  slide
| ~  vibrato
| * harmonic
| .  Mute note=
=========================================================================================
Related for Vices Like Vipers tab