Song name
# A B C D E F G H I J K L M N O P Q R S T U V W X Y Z

Oh Sleeper - Means To Believe tab

Tuning: Drop D (with capo on first fret) (DADGBE) 

Intro:
----------------------------------------------------------------------------|
-------3-----------3------------3------------3------------------------------|
---------2---2-------2---2--------2---2-----2--2---2------------------------|
-----0-----0-----0-----0------0-----0------0-----0--------------------------|
--1------------3------------------------------------------------------------|
---------------------------0-------------0----------------------------------|



----------------------------------------------------------------------------|
-------3-----------3------------3------------3------------------------------|
---------2---2-------2---2--------2---2-----2--2---2------------------------|
-----0-----0-----0-----0------0-----0------0-----0--------------------------|
--1------------3------------------------------------------------------------|
---------------------------0-------------0----------------------------------|

^ repeatx2 ^

----------------------------------------------------------------------------|
-------3-----------3------------3------------3------------------------------|
---------2---2-------2---2--------2---2-----2--2---2------------------------|
-----0-----0-----0-----0------0-----0------0-----0--------------------------|
--1------------3------------------------------------------------------------|
---------------------------0-------------0----------------------------------|



----------------------------------------------------------------------------|
-------3-----------3------------3------------3------------------------------|
---------2---2-------2---2--------2---2-----2--2---2------------------------|
-----0-----0-----0-----0------0-----0------0-----0--------------------------|
--1------------3------------------------------------------------------------|
---------------------------0-------------0----------------------------------|



----------------------------------------------------------------------------|
-------3-----------3------------3------------3------------------------------|
---------2---2-------2---2--------2---2-----2--2---2------------------------|
-----0-----0-----0-----0------0-----0------0-----0--------------------------|
--1------------3-------------------------3----------------------------------|
---------------------------3------------------------------------------------|



----------------------------------------------------------------------------|
-------3-----------3--------------------------------------------------------|
---------2---2-------2---2--------------------------------------------------|
-----0-----0-----0-----0----------------------------------------------------|
--1------------3------------------------------------------------------------|
----------------------------------------------------------------------------|
Tap to rate this tab
# A B C D E F G H I J K L M N O P Q R S T U V W X Y Z