Song name
# A B C D E F G H I J K L M N O P Q R S T U V W X Y Z

Opeth - Grand Conjuration tab

i will keep posting till its accepted damnit


the tuning is in drop d! i looked at the other tabs and learned the intro on every
one of them was wrong i play it this way and it sounds correct so for those who just 
to
the intro like i did this tab is for you!! i even played this tab to the intro to see 
close it sounded and its really close sooo i dont see why anyone would have to deny this tab!!

*=palm mute
~=ring out

|10-10--10-10--10-10--9--9--9--9--9--9--5--5--5--5---|
|-7--7---7--7---7--7--7--7--7--7--7--7--2--2--2--2---|
|-0--0---0--0---0--0--0--0--0--0--0--0--0--0--0--0---|
|----------------------------------------------------|
|-----*0-----*0-----*0----*0----*0----*0----*0----*0-|
|-----*0-----*0-----*0----*0----*0----*0----*0----*0-|


|----------------------------------------------------|
|-------------------(repeat x14 i think)-------------|
|----------------------------------------------------|
|-1-0/12-0-1-0/4~~-5-4/7~~7-5-6~~7-6-0~~-------------|
|-1-0/12-0-1-0/4~~-5-4/7~~5-3-6~~7-6-0~~-------------|
|-1-0/12-0-1-0/4~~-5-4/7~~----6~~7-6-0~~-------------|

|----------------------------------------------------|
|--------------------(repeat x8 i think)-------------|
|----------------------------------------------------|
|-0-1-0---0-1-0---0-1-0---7--5-6~~7-6-0~~------------|
|-0-1-0---0-1-0---0-1-0---5--3-6~~7-6-0~~------------|
|-0-1-0---0-1-0---0-1-0--------6~~7-6-0~~------------|
Tap to rate this tab
# A B C D E F G H I J K L M N O P Q R S T U V W X Y Z