Song name
# A B C D E F G H I J K L M N O P Q R S T U V W X Y Z

Orianthi - Drive Away tab

Drive Away by Orianthi
tab by acatIRL (http://www.orianthi.com/user/default.aspx?mid=6578820)

tuning: standard
I tabbed the parts individually, the order that they go in is at the end.

intro

E--------|
B--------|
G--------|
D--------|
A-/7-----|
E--------|


main
               Em
E--------------7-----------------------------|
B---7-8-7---7--8----7-8-7--------------------|
G-------7---7--9--------7-------7------------|
D---7-7---x----9----7-7---5h7/9--9/7-5-------|
A-7------------7--7--------------------7-5-7-|
E--------------7-----------------------------|

(the Em is played on another guitar, but you can play it on one for fun)


pre-chorus

Guitar 1

  C    D
E-3----5--|
B-5----7--|
G-5----7--|
D-5----7--|
A-3----5--|
E-3----5--|

(sounds like another guitar in there doing single note strumming of these chords as well)


lead I

E--------------------10--------------------------|
B---------8-10-10/12----10^-8---8-10-10^v-8~~~~--|
G-----7-9---------------------9------------------|
D-7-9--------------------------------------------|
A------------------------------------------------|
E------------------------------------------------|


chrous

guitar 1
   C  G    D    C  G Em D
E--3--3----5----3--3--0-5--|
B--5--3----7----5--3--0-7--|
G--5--4----7----5--4--0-7--|
D--5--5----7----5--5--2-7--|
A--3--5----5----3--5--2-5--|
E--3--3----5----3--3--0-5--|

guitar2


E-----10-----10----------10----10----------10-----10----------10-----10-------|
B---8----8-8----8-----10----10----10-----8----8-8----8-----10------8----------|
G-9----------------11------------------9----------------11-------9------------|
D-----------------------------------------------------------------------------|
A-----------------------------------------------------------------------------|
E-----------------------------------------------------------------------------| x2

(more strumming over chords on the second guitar)


lead II

E-15-14-12------------------12-------------10---------------------|
B----------15-12-15^-15^~~~----10^------------10^-----------------|
G----------------------------------12-9-----------12-10-----------|
D---------------------------------------12--------------12-10-----|
A-------------------------------------------------------------12--|
E-----------------------------------------------------------------|

(not 100% on the last 2 runs, should be close though)


lick I

E------7h10-7--------|
B-8/10--------10-8---|
G------------------9-|
D--------------------|
A--------------------|
E--------------------|


lead III

E-----------15--17-15-17^-15~~-|
B-----15-17--------------------|
G-/16--------------------------|
D------------------------------|
A------------------------------|
E------------------------------|


solo

E-----14-15-----15-17-19^-17--15-17-19-17-15-17-14h15p14--------------------|
B-17^-------15~------------------------------------------17-15--------------|
G--------------------------------------------------------------16-14-12-14^-|
D---------------------------------------------------------------------------|
A---------------------------------------------------------------------------|
E---------------------------------------------------------------------------|

E----------------------------------------------------------|
B----------------------------------------------------------|
G----9----11h12p11-9---------------------------------------|
D-12---12------------12-9--------------12^-----------------|
A-------------------------10-12--12-10-----12-10----10~~~--|
E------------------------------------------------12--------|


bridge

   C  G    D    C  G Em D
E--3--3----5----3--3--0-5--|
B--5--3----7----5--3--0-7--|
G--5--4----7----5--4--0-7--|
D--5--5----7----5--5--2-7--|
A--3--5----5----3--5--2-5--|
E--3--3----5----3--3--0-5--|


Lead IV

E--------------------------|
B--------------------------|
G-----------------7---7h9~-|
D-----5--7-5-7/9----9------|
A-5-7----------------------|
E--------------------------|

(she hammers back up the scale at the end but its pretty silent so i wont include it)


outro lead

E------------|
B------------|
G---------7~-|
D-----7-9----|
A-/10--------|
E------------|

E-13-13-13-13-13-13-15-15-15-15-15-15-16-16-16-16-16-16-18-18-18-18-18-18-|
B-------------------------------------------------------------------------|
G-------------------------------------------------------------------------|
D-------------------------------------------------------------------------|
A-------------------------------------------------------------------------|
E-------------------------------------------------------------------------|

E-------------------------------------------------------------------------------|
B-16^-17-15-----------15----------------15--------------------------------------|
G-----------16-14h16^---16-14----14h16^----16-14----14~--12/14-----16-14-12-14--|
D-----------------------------17-----------------17------------12~--------------|
A-------------------------------------------------------------------------------|
E-------------------------------------------------------------------------------|

(something like that..ugh)

E----------------------------------------------10--------------------|
B---------------------------------8-10--10/12^----12-10----10----10/-|
G-----------------------------7-9-----------------------12----12-----|
D----------------X5-X5-X7-7/9----------------------------------------|
A-------X5-X5-X7-----------------------------------------------------|
E-X5-X7--------------------------------------------------------------|

E-------------20----18~-----------------------------------------------|
B-------17-20----20-----17-19-20-19-17--------------------------------|
G-16-19--------------------------------19-17-16-----------------------|
D-----------------------------------------------19-17-16-17-16-14-12~-|
A---------------------------------------------------------------------|
E---------------------------------------------------------------------|

E--------------------------------------------------------------------|
B--------------------------------------------------------------------|
G----12-14^-12h14-12h14~-------11-12-11------------------------------|
D-14---------------------12-14----------14-12-12h14p12~/14-----------|
A--------------------------------------------------------------------|
E--------------------------------------------------------------------|

E--------------------------------------------------------------------|
B--------------------------------------------------------------------|
G-------------------------------------12^----------------------------|
D-12-14~14~-12-14~14~-12-14~14~-12-14--------------------------------|
A--------------------------------------------------------------------|
E--------------------------------------------------------------------|


song structure

intro
main
prechorus
lead I
chorus
lead II
main
lick I
prechorus
lead III
chorus
solo
bridge
lead IV
chorus
outro lead
Tap to rate this tab
# A B C D E F G H I J K L M N O P Q R S T U V W X Y Z