Song name
# A B C D E F G H I J K L M N O P Q R S T U V W X Y Z

Orianthi - Shut Up Kiss Me tab

-----------------------------------------------------------------
SHUT UP & KISS ME - Orianthi
-----------------------------------------------------------------
Tabbed by:Frank Truei
Email:Brokensword421@hotmail.com

Tuning:Standard (EADGBe)

Intro (0:00 - 0:06)
LEAD
e|--12---12------12---12---9--------|
B|9----9----9--8----8----8---12-10-9|
G|----------------------------------|
D|----------------------------------|
A|----------------------------------|
E|----------------------------------|
RHYTHM
e|----------------------------------|
B|----------------------------------|
G|----------------------------------|
D|--9---9------9---9---7-6-9-7------|
A|7---7---7--7---7---7--------------|
E|----------------------------------|

Part 2 (0:07 - 0:30)
LEAD
Silent from 0:06 - 0:18).  After that,

e|------------------------------------------------------|
B|------------------------------------------------------|
G|------------------------------------------------------|
D|6---6---4---4---6---6-2/4-2|6---6---4---4--6---6-2/4-6|
A|--7---7---7---7---7--------|--7---7---7---7--7--------|
E|---------------------------|--------------------------|

e|---------------------------|---------------------------------------|
B|---------------------------|---------------------------------------|
G|---------------------------|---------------------------------------|
D|6---6---4---4---6---6-2/4-6|-12-12-12-12-12-12-12-12-12-12-12-12-12|
A|--4---4---4---4---4--------|---------------------------------------|
E|---------------------------|---------------------------------------|

RHYTHM
   PM this whole line \/
e|---------------|---|---------------|
B|---------------|---|---------------|
G|9-9-9-9-9-9-9-9|-X3|9-9-9-9-9-9-9-4|
D|9-9-9-9-9-9-9-9|---|9-9-9-9-9-9-9-4|
A|7-7-7-7-7-7-7-7|---|7-7-7-7-7-7-7-2|
E|---------------|---|---------------|

 PM this whole line \/
e|---------------|---|---------------|-----------------|
B|---------------|---|---------------|-----------------|
G|6-6-6-6-6-6-6-6|---|---------------|-----------------|
D|6-6-6-6-6-6-6-6|-x2|7-7-7-7-7-7-7-7|7-7-7-7-7-12-12--|
A|4-4-4-4-4-4-4-4|---|7-7-7-7-7-7-7-7|7-7-7-7-7-12-12--|
E|---------------|---|5-5-5-5-5-5-5-5|5-5-5-5-5-10-10--|

 PM this whole line \/
e|-------------|---|----------------|
B|-------------|---|----------------|
G|9-9-9-9-9-9-9|-X3|9-9-9-9-9-9-9-9\|
D|9-9-9-9-9-9-9|---|9-9-9-9-9-9-9-9\|
A|7-7-7-7-7-7-7|---|7-7-7-7-7-7-7-7\|
E|-------------|---|----------------|

  PM------------------------------------------------|
e|---------------|---|---------------|--------------|
B|---------------|---|---------------|--------------|
G|6-6-6-6-6-6-6-6|---|---------------|--------------|
D|6-6-6-6-6-6-6-6|-x2|7-7-7-7-7-7-7-7|7-7-7-7-7-----|
A|4-4-4-4-4-4-4-4|---|7-7-7-7-7-7-7-7|7-7-7-7-7-----|
E|---------------|---|5-5-5-5-5-5-5-5|5-5-5-5-5-----|

CHORUS (0:31-0:56)

LEAD
e|------------------------------------------------|
B|------------------------------------------------|
G|9-----------4------------6-----------5----------|
D|9-----------4------------6-----------5----------|
A|7-----------2------------4-----------7----------|
E|------------------------------------------------|

 [Don't let these ring--]
e|----------------------|-------------------------|
B|----------------------|-------------------------|
G|6--6--6--6--4--4--4--4|-------------------------|
D|6--6--6--6--4--4--4--4|7-------------7-7-7--7--7|
A|4--4--4--4--2--2--2--2|7-------------7-7-7--7--7|
E|----------------------|5-------------5-5-5--5--5|

e|------------------------------------------------|
B|------------------------------------------------|
G|9-----------4------------6-----------5----------|
D|9-----------4------------6-----------5----------|
A|7-----------2------------4-----------7----------|
E|------------------------------------------------|

 [Don't let these ring--]
e|----------------------|-------------------------|
B|----------------------|-------------------------|
G|6--6--6--6--4--4--4--4|-------------------------|
D|6--6--6--6--4--4--4--4|7-------------9-9-9--9--9|
A|4--4--4--4--2--2--2--2|7-------------9-9-9--9--9|
E|----------------------|5-------------7-7-7--7--7|

RHYTHM
e|---------------|---------------|---------------|---------------|
B|---------------|---------------|---------------|---------------|
G|9-9-9-9-9-9-9-9|4-4-4-4-4-4-4-4|6-6-6-6-6-6-6-6|7-7-7-7-7-7-7-7|
D|9-9-9-9-9-9-9-9|4-4-4-4-4-4-4-4|6-6-6-6-6-6-6-6|7-7-7-7-7-7-7-7|
A|7-7-7-7-7-7-7-7|2-2-2-2-2-2-2-2|4-4-4-4-4-4-4-4|5-5-5-5-5-5-5-5|
E|---------------|---------------|---------------|---------------|


e|---------------|---------------|---------------|---------|
B|---------------|---------------|---------------|---------|
G|6-6-6-6-6-6-6-6|4-4-4-4-4-4-4-4|---------------|---------|
D|6-6-6-6-6-6-6-6|4-4-4-4-4-4-4-4|7-7-7-7-7-7-7-7|7-7-7-7-7|
A|4-4-4-4-4-4-4-4-2-2-2-2-2-2-2-2|7-7-7-7-7-7-7-7|7-7-7-7-7|
E|---------------|---------------|5-5-5-5-5-5-5-5|5-5-5-5-5|

e|---------------|---------------|---------------|---------------|
B|---------------|---------------|---------------|---------------|
G|9-9-9-9-9-9-9-9|4-4-4-4-4-4-4-4|6-6-6-6-6-6-6-6|7-7-7-7-7-7-7-7|
D|9-9-9-9-9-9-9-9|4-4-4-4-4-4-4-4|6-6-6-6-6-6-6-6|7-7-7-7-7-7-7-7|
A|7-7-7-7-7-7-7-7|2-2-2-2-2-2-2-2|4-4-4-4-4-4-4-4|5-5-5-5-5-5-5-5|
E|---------------|---------------|---------------|---------------|

e|---------------|---------------|---------------|---------|
B|---------------|---------------|---------------|---------|
G|6-6-6-6-6-6-6-6|4-4-4-4-4-4-4-4|---------------|---------|
D|6-6-6-6-6-6-6-6|4-4-4-4-4-4-4-4|7-7-7-7-7-7-7-7|9-9-9-9-9|
A|4-4-4-4-4-4-4-4-2-2-2-2-2-2-2-2|7-7-7-7-7-7-7-7|9-9-9-9-9|
E|---------------|---------------|5-5-5-5-5-5-5-5|7-7-7-7-7|

Part 3, (0:57 - 1:03)
Repeat the Intro.

Part 4 (1:03 - 1:27)
LEAD:  Repeat Part 2

CHORUS 2 (1:28 - 1:53)

RHYTHM:  Repeat Part 2

Part 5 (1:54- 2:04)
LEAD
Silent til 2:00, then
e|12---12----12---12---12----12----12----12---|
B|---9----9-----9----9----12----12----12----12|
G|--------------------------------------------|  Then weird noise
D|--------------------------------------------|  (I think by rubbing
A|--------------------------------------------|  Whammy on strings)
E|--------------------------------------------|

RHYTHM
e|---------------|-------------|---------------|---------------|
B|---------------|-------------|---------------|---------------|
G|6-6-6-6-6-6-6-6|9-9-9-9-9-9-6|4-4-4-4-4-4-4-4|5-5-5-5-5-5-5-5|
D|6-6-6-6-6-6-6-6|9-9-9-9-9-9-6|4-4-4-4-4-4-4-4|5-5-5-5-5-5-5-5|
A|4-4-4-4-4-4-4-4|7-7-7-7-7-7-4|2-2-2-2-2-2-2-2|3-3-3-3-3-3-3-3|
E|---------------|-------------|---------------|---------------|

e|---------------|-------------|---------------|---------------|
B|---------------|-------------|---------------|---------------|
G|6-6-6-6-6-6-6-6|9-9-9-9-9-9-9|4-4-4-4-4-4-4-4|4-4-4-4-4------|
D|6-6-6-6-6-6-6-6|9-9-9-9-9-9-9|4-4-4-4-4-4-4-4|4-4-4-4-4------|
A|4-4-4-4-4-4-4-4|7-7-7-7-7-7-7|2-2-2-2-2-2-2-2|2-2-2-2-2------|
E|---------------|-------------|---------------|---------------|

GUITAR 3
e|----------------------------------------------------|
B|----------------------------------------------------|
G|6-6----6-6----9-9----9-9----4-4----4-4----5-5----5-5|
D|6-6----6-6----9-9----9-9----4-4----4-4----5-5----5-5|
A|4-4----4-4----7-7----7-7----2-2----2-2----3-3----3-3|
E|----------------------------------------------------|

e|--------------------------------------|
B|--------------------------------------|
G|6-6----6-6----9-9----9-9----4-4----4-4|
D|6-6----6-6----9-9----9-9----4-4----4-4|
A|4-4----4-4----7-7----7-7----2-2----2-2|
E|--------------------------------------|

SOLOOOO (2:05 - 2:29)

e|--------------24~-----11b12r11~---9---------|
B|/14~--14p12---------9-----------9---12b14~--|
G|-----------13-------------------------------|
D|--------------------------------------------|
A|--------------------------------------------|
E|--------------------------------------------|

For this part the notes are actually whammied Steve Vai styled, but my guitar has a 
bridge so I don't know how to do it myself.  Heres how I do it on my guitar

e|9-8b9r7-6b7r4-------------------------------|
B|--------------7b8r7-5h7s8b9r2----4/14~------|
G|--------------------------------------------|
D|--------------------------------------------|
A|--------------------------------------------|
E|--------------------------------------------|
Eerg you can barely hear this part...
e|--------------------------------------------------|
B|-------------------------------7-----9h10p9p7 7b9-|
G|--------------------6h8-6h8--9---9p8--------------|
D|----------6h7-6h7h9----9--------------------------|
A|6h7-6h7h9----8------------------------------------|
E|---9----------------------------------------------|

e|-------9-9-----------------11-11----------------12-12----------|
B|/13b14----/13b14\--/15b16~-----/15b16\--/16b17~-----/16b17\----|
G|---------------------------------------------------------------|
D|---------------------------------------------------------------|
A|---------------------------------------------------------------|
E|---------------------------------------------------------------|
      T           T           T           T
e|----16-12p9-----16-12p9-----16-12p9-----16-12p9----|
B|12---------12p9--------12p9--------12p9--------12p9|
G|---------------------------------------------------|
D|---------------------------------------------------|
A|---------------------------------------------------|
E|---------------------------------------------------|
  T
e|16-12p9----------------------------------------------------------|
B|-------12p0-9p0-7p0-5p0-7p0-5p0-4p0-5p0-4p0-2p0-4p0-2p0-0h20h2-p0|
G|-----------------------------------------------------------------|
D|-----------------------------------------------------------------|
A|-----------------------------------------------------------------|
E|-----------------------------------------------------------------|

*then whammy...dont have one but id imagine you need to make the strings real lax 
for that part....

RHYTHM
e|---------------|---------------|---------------|---------------|
B|---------------|---------------|---------------|---------------|
G|9-9-9-9-9-9-9-9|4-4-4-4-4-4-4-4|6-6-6-6-6-6-6-6|7-7-7-7-7-7-7-7|
D|9-9-9-9-9-9-9-9|4-4-4-4-4-4-4-4|6-6-6-6-6-6-6-6|7-7-7-7-7-7-7-7|
A|7-7-7-7-7-7-7-7|2-2-2-2-2-2-2-2|4-4-4-4-4-4-4-4|5-5-5-5-5-5-5-5|
E|---------------|---------------|---------------|---------------|

e|---------------|-------------------------------|---------------|
B|---------------|-------------------------------|---------------|
G|6-6-6-6-6-6-6-6|4-4-4-4-4-4-4-4----------------|---------------|
D|6-6-6-6-6-6-6-6|4-4-4-4-4-4-4-4-7-7-7-7-7-7-7-7|7-7-7-7-7-7-7-7|
A|4-4-4-4-4-4-4-4|2-2-2-2-2-2-2-2-7-7-7-7-7-7-7-7|7-7-7-7-7-7-7-7|
E|---------------|----------------5-5-5-5-5-5-5-5|5-5-5-5-5-5-5-5|

e|---------------|---------------|---------------|---------------|
B|---------------|---------------|---------------|---------------|
G|9-9-9-9-9-9-9-9|4-4-4-4-4-4-4-4|6-6-6-6-6-6-6-6|7-7-7-7-7-7-7-7|
D|9-9-9-9-9-9-9-9|4-4-4-4-4-4-4-4|6-6-6-6-6-6-6-6|7-7-7-7-7-7-7-7|
A|7-7-7-7-7-7-7-7|2-2-2-2-2-2-2-2|4-4-4-4-4-4-4-4|5-5-5-5-5-5-5-5|
E|---------------|---------------|---------------|---------------|

e|---------------|---------------|
B|---------------|---------------|
G|6-6-6-6-6-6-6-6|4-4-4-4-4-4-4-4|
D|6-6-6-6-6-6-6-6|4-4-4-4-4-4-4-4|
A|4-4-4-4-4-4-4-4|2-2-2-2-2-2-2-2|
E|---------------|---------------|

Repeat the Chorus
Repeat the Intro

END

LEAD
Ends with 9 on the B string ringing out

Rhythm ends on the chord
e|-|
B|-|
G|9|
D|9|
A|7|
E|-|
Tap to rate this tab
# A B C D E F G H I J K L M N O P Q R S T U V W X Y Z