Song name
# A B C D E F G H I J K L M N O P Q R S T U V W X Y Z

Panic At The Disco - Memories chords

Highlighted       Show chord diagrams
CAPO II

Intro:
D    F#m    D    F#m    A

Verse I:
           D
He was the congregation's vagrant
        F#m
With an unrequited love.
          G              Bm
When your passion's exultation,
             Asus4           A
Then finding refuge is not enough.

            D
She was the youngest of the family
        F#m
And the last to be let go.
        G               Bm
They decided they would try
            Asus4     A
And make it on their own.

Chorus:
         Bm               G
Oh, memories, where'd you go?
         A
You were all I've ever known.
      Bm         G
How I miss yesterday.
       A
And I let it fade away.
            Bm
Where'd you go?
            G
Oh, oh, oh, oh.
        A
Oh, oh, oh, oh.

Verse II:
        D
When July became December
        F#m
Their affection fought the cold,
         G                Bm
But they couldn't quite remember
         Asus4        A
What inspired them to go.
           
           D
And it was beautifully depressing
        F#m
Like 'A Streetcar Named Desire'.
          G                  Bm
They were fighting for their love
             Asus4       A
That started growing tired.

Chorus:
         Bm               G
Oh, memories, where'd you go?
         A
You were all I've ever known.
      Bm         G
How I miss yesterday.
       A
And I let it fade away.
           G     D
Don't fade away.

Solo:
             Bm               G             A
e|---------|----------------|-------------|-------------|------------------|
B|---------|----------------|-------------|-------------|------------------|
G|---------|----------------|-------------|-------------|------------------|
D|---------|-0--------------|-0-----------|--4---2--2--0|-2----------------|
A|-0--2--4-|----------2---4-|-----------0-|-------------|------------2---4-|
E|---------|----------------|-------------|-------------|------------------|

  Bm                G             A
e|-----------------|-------------|-----------|----------------|
B|-----------------|-------------|-----------|----------------|
G|-----------------|-------------|-----------|----------------|
D|--0--------------|---------0-0-|-0---------|----------------|
A|-------2-2---0-0-|-------------|----4-4---0|----------------|
E|-----------------|-------0-----|-----------|-0--------------|


Verse III:
D
Money lost momentum
        F#m
And the bills were piling high.
         G                 Bm
Then the smile, it finally faded
         Asus4          A
From the apple of their eye.

              D
And they were young and independent,
         F#m
And they thought they had it planned.
          G                    Bm
Should've known right from the start
             Asus4      A
You can't predict the end.

Chorus:
         Bm               G
Oh, memories, where'd you go?
         A
You were all I've ever known.
      Bm         G
How I miss yesterday.
       A
And I let it fade away.

         Bm               G
Oh, memories, where'd you go?
         A
You were all I've ever known.
      Bm         G
How I miss yesterday.
       A
And I let it fade away.
           G      D
Don't fade away. 
Tap to rate this tab
 
# A B C D E F G H I J K L M N O P Q R S T U V W X Y Z