Song name
# A B C D E F G H I J K L M N O P Q R S T U V W X Y Z

Pantera - Im Broken tab

                               I'm Broken

Intro
[x4                    ]
|-----------------------|----------------------------------|
|-----------------------|----------------------------------|
|-----------------------|----------------------------------|
|-----------------------|----------------------------3/5\3-|
|-3/5--3/5--3p0---------|-3/5--3/5--3p0--------3/5---------|
|----------------5p3p0--|----------------5p3p0-------------|

|----------------------------------|----------------------------------|
|----------------------------------|----------------------------------|
|--------------------------------5-|----------------------------------|
|----------------------------5/7---|----------------------------3/5\3-|
|-3/5--3/5--3p0--------3/5---------|-3/5--3/5--3p0--------3/5---------|
|----------------5p3p0-------------|----------------5p3p0-------------|
                        [P.M--------]        
|-----------------------------------|
|-----------------------------------|
|-----------------------------------|
|-----------------------0-0--0-0--0-|
|-3/5--3/5--3p0---------0-0--0-0--0-|
|----------------5p3p0--0-0--0-0--0-|

Verse
             P.M             P.M             P.M       
|----------------|---------------|---------------|
|----------------|---------------|---------------|
|----------------|---------------|---------------|
|----------------|---------------|---------------|
|----------------|---------------|---------------|
|--5b7--5b7--0-0-|-5b7--5b7--0-0-|-5b7--5b7--0-0-|


             P.M             P.M             P.M       
|----------------|---------------|---------------|
|----------------|---------------|---------------|
|----------------|---------------|---------------|
|----------------|---------------|---------------|
|----------------|---------------|---------------|
|--5b7--5b7--0-0-|-5b7--5b7--0-0-|-5b7--5b7--0-0-|

            P.M     
|----------------------------|
|----------------------------|
|----------------------------|
|--------------------------5-|
|----------------------------|
|-5b7--5b7--0-0--5-0-5-6-7---|

            P.M             P.M
|---------------|---------------|
|---------------|---------------|
|---------------|---------------|
|---------------|---------------|
|-5b7--5b7------|-5b7--5b7------|
|-----------0-0-|-----------0-0-|


            P.M             P.M
|---------------|---------------|
|---------------|---------------|
|---------------|---------------|
|---------------|---------------|
|-5b7--5b7------|-5b7--5b7------|
|-----------0-0-|-----------0-0-|


            P.M             P.M
|---------------|---------------|
|---------------|---------------|
|---------------|---------------|
|---------------|---------------|
|-5b7--5b7------|-5b7--5b7------|
|-----------0-0-|-----------0-0-|


            P.M         
|------------------------------|
|------------------------------|
|------------------------------|
|------------------------------|
|-5b7--5b7------5b7--5---------|
|-----------0-0----------0-5-6-|


 Pre-Chorus
                                  
|---------------------------------|-------------|
|---------------------------------|-------------|
|---------------------------------|-------------|
|---------------------------------|-------------|
|---------------------------------|-------------|
|-5-3-0---2-3-2-1-0---5-6-5-3-0---|-2-3-2-1-0---|


                                  
|---------------------|-------------------|-------------|
|---------------------|-------------------|-------------|
|---------------------|-------------------|-------------|
|---------------------|-------------------|-------------|
|---------------------|-----------4-5-4-3-|-2---2-------|
|-5-6-5-3-0-2-3-2-1-0-|-5-6-5-3-0-4-5-4-3-|-2---2-------|


|---------------------------------|---------------------------------|
|---------------------------------|---------------------------------|
|---------------------------------|-------------------------------5-|
|---------------------------3/5\3-|---------------------------5/7---|       
|-3/5--3/5--3p0-------3/5---------|-3/5--3/5--3p0-------3/5---------|
|---------------5p3p0-------------|---------------5p3p0-------------|

                                                       [P.M          ]
|-------------------------------|-------------------------------------|
|-------------------------------|-------------------------------------|
|-------------------------------|-------------------------------------|
|-----------------------3/5\3---|-------------------------------------|
|-3/5-3/5-3p0-------3/5---------|-3/5-3/5-3p0-------2--0-0---0-0---0--|
|-------------5p3p0-------------|-------------5p3p0-2--0-0---0-0---0--|

                      [P.M                              
|-------------------|------------------------------------|
|-------------------|------------------------------------|
|-------------------|------------------------------------|
|-------------------|------------------------------------|
|-3/5-3/5-3p0-------|--0-0---0-0---0-0---0-0---0-0---0-0-|
|-------------5p3p0-|--0-0---0-0---0-0---0-0---0-0---0-0-|


 Interlude
                    ]              {x3   [P.M           ]              }
|----------------------------------|-----------------------------------|
|----------------------------------|-----------------------------------|
|----------------------------------|-----------------------------------|
|--------------------------------5-|--------------------------------5--|
|---0-0---0-0---0-0----------------|--7\-0-0---0-0---0-0---------------|
|---0-0---0-0---0-0---/7-6-5-6-7---|-----0-0---0-0---0-0-/7-6-5-6-7----|


Pre-Chorus
     [P.M         ]
|------------------|---------------------|---------------------|
|------------------|---------------------|---------------------|
|------------------|---------------------|---------------------|
|------------------|---------------------|---------------------|
|-7\-0-0---0-0---0-|---------------------|---------------------|
|----0-0---0-0---0-|-5-6-5-3-0-2-3-2-1-0-|-5-6-5-3-0-2-3-2-1-0-|


|---------------------|-------------------|---------------|
|---------------------|-------------------|---------------|
|---------------------|-------------------|---------------|
|---------------------|-------------------|---------------|
|---------------------|-------------------|-2---2---/7-5--|
|-5-6-5-3-0-2-3-2-1-0-|-5-6-5-3-0-2-3-2-1-|-2---2---------|


 Guitar Solo
 
|---------------------------------------------------|
|---15----(15)-15-15----(15)----15---------------15-|
|---14b16-(14)----14b16-(14)-------14b16-(14)-------|
|----------------------------14---------------14----|
|---------------------------------------------------|
|---------------------------------------------------|


|---------------------------------------|
|------------------14-14----15----14----|
|-14pb16-\8/12-----------12----12----12-|
|---------------------------------------|
|---------------------------------------|
|---------------------------------------|


|------------------------17p12-15p12----12-15p12-|
|-15----14---------------------------17----------|
|----12----12-(12)-(12)\-------------------------|
|------------------------------------------------|
|------------------------------------------------|
|------------------------------------------------|

|-15p12----12-------------------------------------------------------------|
|-------17----17-16-15p12-17p12-15p12-13-12-15p12-15p12-13-12-13-12-------|
|-------------------------------------------------------------------15p12-|
|-------------------------------------------------------------------------|
|-------------------------------------------------------------------------|
|-------------------------------------------------------------------------|


|----------------------------------------------------------------------|
|-15p12-13p12-13-12-------13-12-12-12----------------------------------|
|-------------------15p12-------------15-14p12-14-14-12----12-12s11----|
|-------------------------------------------------------14----------12-|
|----------------------------------------------------------------------|
|----------------------------------------------------------------------|


|----------------------------------------|
|------------------------------8b10-(8)--|
|-11-11--------------------7h9-----------|
|-------14s12--9-----5h7s9---------------|
|----------------5s7---------------------|
|----------------------------------------|


|-----[10]----(10)-(10)-(10)-(10)---------------------|
|-(8)-------------------------------------------------|
|---------------------------------9p7-[9]-(9)-9s14S4/-|
|-----------------------------------------------------|
|-----------------------------------------------------|
|-----------------------------------------------------|


|-------12----14----15-(15)----|-15b18==(15)-(15)b19-(15)-|
|-10s12----12----12---------12-|--------------------------|
|------------------------------|--------------------------|
|------------------------------|--------------------------|
|------------------------------|--------------------------|
|------------------------------|--------------------------|


|-18-(18)-19-(19)-18-(18)-19--|-21\-16\-21\-18--|
|-18-(18)-19-(19)-18-(18)-19--|-21\-16\-21\-----|
|-----------------------------|-----------------|
|-----------------------------|-----------------|
|-----------------------------|-----------------|
|-----------------------------|-----------------|


|-(18)\----------19b22-(19)-(19)\----|
|------------------------------------|
|---------------------------------7/-|
|---------------------------------7/-|
|-------14S19\-----------------------|
|-------14S19\-0---------------------|


|-------------15-17-18-19-------------15-17-19-19-------------|
|-15-17-18-19-------------15-17-18-19-------------15-17-18-19-|
|-------------------------------------------------------------|
|-------------------------------------------------------------|
|-------------------------------------------------------------|
|-------------------------------------------------------------|


|-15-17-18-19-20-21-22-22b24--|
|-----------------------------|
|-----------------------------|
|-----------------------------|
|-----------------------------|
|-----------------------------|


 Chorus

|---------------------------------|
|---------------------------------|
|---------------------------------|
|-------------------------3/5\3---|
|-3/5-3/5-3p0-------3/5-----------|
|-------------5p3p0---------------|



|------------------------------------|------------------------------------|
|------------------------------------|------------------------------------|
|-----------------------------5------|------------------------------------| 
|-------------------------5/7--------|-------------------------3/5\3------|
|-3/5-3/5-3p0-------3/5--------------|-3/5-3/5-3p0-------3/5--------------|
|-------------5p3p0------------------|-------------5p3p0------------------|

                       [P.M         ]
|------------------------------------|
|------------------------------------|
|------------------------------------|
|------------------------------------|
|-3/5-3/5-3p0-------2--0-0---0-0---0-|
|-------------5p3p0-2--0-0---0-0---0-|


 Pre-Chorus
|---------------------|----------------------|
|---------------------|----------------------|
|---------------------|----------------------|
|---------------------|----------------------|
|---------------------|----------------------|
|-5-6-5-3-0-2-3-2-1-0-|-5-6-5-3-0-2-3-2-1-0--|


|---------------------|-------------------|---------------||
|---------------------|-------------------|---------------||
|---------------------|-------------------|---------------||
|---------------------|-------------------|---------------||
|---------------------|-------------------|-2---2---/7-5--||
|-5-6-5-3-0-2-3-2-1-0-|-5-6-5-3-0-2-3-2-1-|-2---2---------||


 Chorus
|------------------------------------|
|------------------------------------|
|------------------------------------|
|-------------------------3/5\3------|
|-3/5-3/5-3p0-------3/5--------------|
|-------------5p3p0------------------|

|------------------------------------|-----------------------------------|
|------------------------------------|-----------------------------------|
|------------------------------------|-----------------------------------|
|------------------------------------|-------------------------3/5\3-----|
|-3/5-3/5-3p0-------3/5---3--3-------|-3/5-3/5-3p0-------3/5-------------|
|-------------5p3p0------------------|-------------5p3p0-----------------|

                      [P.M
|-------------------|------------------------------------|
|-------------------|------------------------------------|
|-------------------|------------------------------------|
|-------------------|------------------------------------|
|-3/5-3/5-3p0-------|--0-0---0-0---0-0---0-0---0-0---0-0-|
|-------------5p3p0-|--0-0---0-0---0-0---0-0---0-0---0-0-|


 Outro
                    ]              {x4   [P.M           ]              }
|----------------------------------|-----------------------------------|
|----------------------------------|-----------------------------------|
|----------------------------------|-----------------------------------|
|--------------------------------5-|--------------------------------5--|
|---0-0---0-0---0-0----------------|--7\-0-0---0-0---0-0---------------|
|---0-0---0-0---0-0---/7-6-5-6-7---|-----0-0---0-0---0-0-/7-6-5-6-7----|
Tap to rate this tab
 
# A B C D E F G H I J K L M N O P Q R S T U V W X Y Z