Song name
# A B C D E F G H I J K L M N O P Q R S T U V W X Y Z

Pantera - Suicide Note Part 1 tab

		 Suicide Note Pt. 1 Tab

  [ Part 2: "Attached Text" ]


Here comes the tab for the intro:

Notation (B=bend) (e.g B7 it means prebend, then strike fret 7)
         (S=slide)
         (L=Legato)

---1--3--1--0--1--0---------------------------------------------
---3--3--3--3--3--3--------3------3-----------------------------
---------------------2--S3---3--5-------------------------------
-0-(let ring)---------------------------------------------------
----------------------------------------------------------------
----------------------------------------------------------------
(repeat 3 times)


----------------------------------------------------------------
----------------------------------------------------------------
----9B--7--9--5--7--3--5--3--3--3B--3--2--0---------------------
----------------------------------------------------------------
----------------------------------------------------------------
----------------------------------------------------------------

cheap cocaine ...... 
--3-------------------------------------------------------------
--0-------------------------------------------------------------
--0-------------------------------------------------------------
--0-------------------------------------------------------------
--2-------------------------------------------------------------
----------------------------------------------------------------


..away
----2--3--2--0--2--0--------------------------------------------
----3--3--3--3--3--3--------3-----2--3--------------------------
----------------------2--4-----4--------------------------------
--0-(let ring)--------------------------------------------------
----------------------------------------------------------------
----------------------------------------------------------------
(repeat 4 times)
Tap to rate this tab
# A B C D E F G H I J K L M N O P Q R S T U V W X Y Z