Song name
# A B C D E F G H I J K L M N O P Q R S T U V W X Y Z

Pantera - Down Below tab

                            "Down Below"
                               Pantera

intro: repeat 8x
--------------------------------------------------------------------------------|
--------------------------------------------------------------------------------|
--------------------------------------------------------------------------------|
---------4-----3----2-----------------------------------------------------------|
---------2-----1----0-----------------------------------------------------------|
-----0-0---0-0----0----5-3-2-5-3-2-1--------------------------------------------|
p.m. ---   ---    --------------------------------------------------------------|

repeat 3x
--------------------------------------------------------------------------------|
--------------------------------------------------------------------------------|
--------------------------------------------------------------------------------|
--------3-------3-----3---------------------------------------------------------|
--------------------------------------------------------------------------------|
----3-3----3-3-----3------------------------------------------------------------|
p.m.---    ---     -------------------------------------------------------------|

repeat 2x
--------------------------------------------------------------------------------|
--------------------------------------------------------------------------------|
--------------------------------------------------------------------------------|
---------4-----3----2-----------------------------------------------------------|
---------2-----1----0-----------------------------------------------------------|
-----0-0---0-0----0----5-3-2-5-3-2-1--------------------------------------------|
p.m. ---   ---    --------------------------------------------------------------|

repeat 3x
--------------------------------------------------------------------------------|
--------------------------------------------------------------------------------|
--------------------------------------------------------------------------------|
--------3-------3-----3---------------------------------------------------------|
--------------------------------------------------------------------------------|
----3-3----3-3-----3------------------------------------------------------------|
p.m.---    ---     -------------------------------------------------------------|

repeat 2x
--------------------------------------------------------------------------------|
--------------------------------------------------------------------------------|
--------------------------------------------------------------------------------|
---------4-----3----2-----------------------------------------------------------|
---------2-----1----0-----------------------------------------------------------|
-----0-0---0-0----0----5-3-2-5-3-2-1--------------------------------------------|
p.m. ---   ---    --------------------------------------------------------------|
Tap to rate this tab
# A B C D E F G H I J K L M N O P Q R S T U V W X Y Z