Song name
# A B C D E F G H I J K L M N O P Q R S T U V W X Y Z

Papa Roach - Scars tab

Gtr I (D A D G B E) - 'Jerry - Main Guitar'
Gtr II (D A D G B E) - 'Jerry - 2nd Guitar'


 Intro
  Q=90
  B5         F#5        C#5        E5
 4/4
  Gtr I
  W          W          W          W
|----------|----------|----------|------|
|----------|----------|----------|------|
|----------|----------|-6--------|------|
|-9--------|-4--------|-6--------|-2----|
|-9--------|-4--------|-4--------|-2----|
|-9--------|-4--------|----------|-2----|


  B5/F#        F#5           C#5        E5   F#5
  W              W           W          H     Q   Q
|------------|-------------|----------|--------------|
|------------|-------------|----------|--------------|
|------------|-------------|-6--------|--------------|
|-4----------|---4---------|-6--------|-2-----4---4--|
|-2----------|---4---------|-4--------|-2-----4---4--|
|-4----------|---4---------|----------|-2-----4---4--|
|
| Gtr II
| H     H       +W           W          H     Q   Q
|------------|-------------|----------|--------------|
|------------|-------------|----------|--------------|
|------11----|-(11)--------|-6--------|-9----16--15--|
|-------x----|--(x)--------|-x--------|-x-----x---x--|
|-------9----|--(9)--------|-4--------|-7----14--13--|
|------------|-------------|----------|--------------|


   Verse
    G#5G#mG#sF#susD#5BmaD#5D#m  E5 C#mE5EG#m/EF#5F#5F#sF#4
    Q  Q  Q  Q    Q  Q  Q  Q    Q  Q  Q  Q    Q  Q  Q  Q
||--------------|-------------|-------------|---------------||
||o-------------|-------------|-------------|--------------o||
||--------------|----4--3-----|----6--4-----|----6--4-------||
||--6--9--8--6--|-1--1--1--4--|-2--2--2--6--|-4--4--4--8----||
||o-6--6--6--9--|-1--1--1--1--|-2--2--2--2--|-4--4--4--4---o||
||--6--6--6--6--|-1--1--1--1--|-2--2--2--2--|-4--4--4--4----||


 Chorus
  B5         F#5/B             F#5
  E. S  E. S  E.  S  E  S  S   E. S E. S E. S E S S
|----------------------------|----------------------|
|----------------------------|----------------------|
|----------------------------|----------------------|
|-9--9--9--9-11--11-11-11-11-|-4--4-4--4-4--4-4-4-4-|
|-9--9--9--9--9---9--9--9--9-|-4--4-4--4-4--4-4-4-4-|
|-9--9--9--9--9---9--9--9--9-|-4--4-4--4-4--4-4-4-4-|
|
| Gtr II
| Q     Q     H                W
|----------------------------|----------------------|
|----------------------------|----------------------|
|------11\-------------------|-6--------------------|
|-------x--------------------|-x--------------------|
|-------9\-------------------|-4--------------------|
|----------------------------|----------------------|


  C#5                    E5        F#5
  E. S E. S E. S E S S   E. S E. S E. S S S S S
|----------------------|------------------------|
|----------------------|------------------------|
|-6--6-6--6-6--6-6-6-6-|------------------------|
|-6--6-6--6-6--6-6-6-6-|-2--2-2--2-4--4-4-4-4-4-|
|-4--4-4--4-4--4-4-4-4-|-2--2-2--2-4--4-4-4-4-4-|
|----------------------|-2--2-2--2-4--4-4-4-4-4-|
|
| W                      H.             Q
|----------------------|------------------------|
|----------------------|------------------------|
|-6--------------------|-9--------------8-------|
|-x--------------------|-x--------------x-------|
|-4--------------------|-7--------------6-------|
|----------------------|------------------------|


  B5/F#                  F#5
  E. S E. S E. S E S S   E. S E. S E. S E S S
|----------------------|----------------------|
|----------------------|----------------------|
|----------------------|----------------------|
|-4--4-4--4-4--4-4-4-4-|-4--4-4--4-4--4-4-4-4-|
|-2--2-2--2-2--2-2-2-2-|-4--4-4--4-4--4-4-4-4-|
|-4--4-4--4-4--4-4-4-4-|-4--4-4--4-4--4-4-4-4-|
|
| W                      W
|----------------------|----------------------|
|----------------------|----------------------|
|-8--------------------|-6--------------------|
|-x--------------------|-x--------------------|
|-6--------------------|-4--------------------|
|----------------------|----------------------|


  C#5                    Bsus4/E   F#5
  E. S E. S E. S E S S   E. S E. S E. S S S S S
|----------------------|------------------------|
|----------------------|------------------------|
|-6--6-6--6-6--6-6-6-6-|------------------------|
|-6--6-6--6-6--6-6-6-6-|-2--2-2--2-4--4-4-4-4-4-|
|-4--4-4--4-4--4-4-4-4-|-2--2-2--2-4--4-4-4-4-4-|
|----------------------|-2--2-2--2-4--4-4-4-4-4-|
|
| W                      H.             Q
|----------------------|------------------------|
|----------------------|------------------------|
|-6--------------------|-4--------------3-------|
|-x--------------------|-x--------------x-------|
|-4--------------------|-2--------------1-------|
|----------------------|------------------------|


   Verse
    G#5G#mD#5F#susD#5BmaD#5D#m  E5 C#mE5EE    F#5F#5F#sF#4
    Q  Q  Q  Q    Q  Q  Q  Q    Q  Q  Q  Q    Q  Q  Q  Q
||--------------|-------------|-------------|---------------||
||o-------------|-------------|-------------|--------------o||
||--------------|----4--3-----|----6--4-----|----6--4-------||
||--6--9--8--6--|-1--1--1--4--|-2--2--2--6--|-4--4--4--8----||
||o-6--6--6--9--|-1--1--1--1--|-2--2--2--2--|-4--4--4--4---o||
||--6--6--6--6--|-1--1--1--1--|-2--2--2--2--|-4--4--4--4----||


 Chorus
  B5         F#5/B             F#5
  E. S  E. S  E.  S  E  S  S   E. S E. S E. S E S S
|----------------------------|----------------------|
|----------------------------|----------------------|
|----------------------------|----------------------|
|-9--9--9--9-11--11-11-11-11-|-4--4-4--4-4--4-4-4-4-|
|-9--9--9--9--9---9--9--9--9-|-4--4-4--4-4--4-4-4-4-|
|-9--9--9--9--9---9--9--9--9-|-4--4-4--4-4--4-4-4-4-|
|
| Gtr II
| Q     Q     H                W
|----------------------------|----------------------|
|----------------------------|----------------------|
|------11\-------------------|-6--------------------|
|-------x--------------------|-x--------------------|
|-------9\-------------------|-4--------------------|
|----------------------------|----------------------|


  C#5                    E5        F#5
  E. S E. S E. S E S S   E. S E. S E. S S S S S
|----------------------|------------------------|
|----------------------|------------------------|
|-6--6-6--6-6--6-6-6-6-|------------------------|
|-6--6-6--6-6--6-6-6-6-|-2--2-2--2-4--4-4-4-4-4-|
|-4--4-4--4-4--4-4-4-4-|-2--2-2--2-4--4-4-4-4-4-|
|----------------------|-2--2-2--2-4--4-4-4-4-4-|
|
| W                      H.             Q
|----------------------|------------------------|
|----------------------|------------------------|
|-6--------------------|-9--------------8-------|
|-x--------------------|-x--------------x-------|
|-4--------------------|-7--------------6-------|
|----------------------|------------------------|


  B5/F#                  F#5
  E. S E. S E. S E S S   E. S E. S E. S E S S
|----------------------|----------------------|
|----------------------|----------------------|
|----------------------|----------------------|
|-4--4-4--4-4--4-4-4-4-|-4--4-4--4-4--4-4-4-4-|
|-2--2-2--2-2--2-2-2-2-|-4--4-4--4-4--4-4-4-4-|
|-4--4-4--4-4--4-4-4-4-|-4--4-4--4-4--4-4-4-4-|
|
| W                      W
|----------------------|----------------------|
|----------------------|----------------------|
|-8--------------------|-6--------------------|
|-x--------------------|-x--------------------|
|-6--------------------|-4--------------------|
|----------------------|----------------------|


  C#5                    E5        F#5
  E. S E. S E. S E S S   E. S E. S E. S S S S S
|----------------------|------------------------|
|----------------------|------------------------|
|-6--6-6--6-6--6-6-6-6-|------------------------|
|-6--6-6--6-6--6-6-6-6-|-2--2-2--2-4--4-4-4-4-4-|
|-4--4-4--4-4--4-4-4-4-|-2--2-2--2-4--4-4-4-4-4-|
|----------------------|-2--2-2--2-4--4-4-4-4-4-|
|
| W                      H.             Q
|----------------------|------------------------|
|----------------------|------------------------|
|-6--------------------|-4--------------3-------|
|-x--------------------|-x--------------x-------|
|-4--------------------|-2--------------1-------|
|----------------------|------------------------|


   Verse
    G#5G#mD#5F#susD#5BmaD#5D#m  E5 C#mE5EE    F#5F#5F#sF#4
    Q  Q  Q  Q    Q  Q  Q  Q    Q  Q  Q  Q    Q  Q  Q  Q
||--------------|-------------|-------------|---------------||
||o-------------|-------------|-------------|--------------o||
||--------------|----4--3-----|----6--4-----|----6--4-------||
||--6--9--8--6--|-1--1--1--4--|-2--2--2--6--|-4--4--4--8----||
||o-6--6--6--9--|-1--1--1--1--|-2--2--2--2--|-4--4--4--4---o||
||--6--6--6--6--|-1--1--1--1--|-2--2--2--2--|-4--4--4--4----||


 Bridge
  B5         F#5        C#5        E5   F#5
  W          W          W          H    Q  Q
|----------|----------|----------|------------|
|----------|----------|----------|------------|
|----------|----------|-6--------|------------|
|-9--------|-4--------|-6--------|-2----4--4--|
|-9--------|-4--------|-4--------|-2----4--4--|
|-9--------|-4--------|----------|-2----4--4--|


  B5               F#5              C#5              E5      F#5
  Gtr II
  E. H.      +S    E. H.      +S    E. H.      +S    E. E. E E. E. E
|----------------|----------------|----------------|-----------------|
|----------------|----------------|----------------|-----------------|
|----------------|----------------|-6--6-------(6)-|-----------------|
|-9--9-------(9)-|-4--4-------(4)-|-6--6-------(6)-|-2--2--2-4--4--4-|
|-9--9-------(9)-|-4--4-------(4)-|-4--4-------(4)-|-2--2--2-4--4--4-|
|-9--9-------(9)-|-4--4-------(4)-|----------------|-2--2--2-4--4--4-|


  B5                                F#5
  Gtr I
  PM--------------------------------------------------------------|
  S S S S S S S S S S S S S S S S   S S S S S S S S S S S S S S S S
|---------------------------------|---------------------------------|
|---------------------------------|---------------------------------|
|---------------------------------|---------------------------------|
|-9-9-9-9-9-9-9-9-9-9-9-9-9-9-9-9-|-4-4-4-4-4-4-4-4-4-4-4-4-4-4-4-4-|
|-9-9-9-9-9-9-9-9-9-9-9-9-9-9-9-9-|-4-4-4-4-4-4-4-4-4-4-4-4-4-4-4-4-|
|-9-9-9-9-9-9-9-9-9-9-9-9-9-9-9-9-|-4-4-4-4-4-4-4-4-4-4-4-4-4-4-4-4-|


  C#5             C#sus2            Bsus4/E
  PM------------|
  S S S S S S S S S S S S S S S S   E Q  Q  Q  E
|-----------------4-4-4-4-4-4-4-4-|--------------|
|-----------------4-4-4-4-4-4-4-4-|--------------|
|-6-6-6-6-6-6-6-6-6-6-6-6-6-6-6-6-|--------------|
|-6-6-6-6-6-6-6-6-6-6-6-6-6-6-6-6-|-2------------|
|-4-4-4-4-4-4-4-4-4-4-4-4-4-4-4-4-|-2------------|
|---------------------------------|-2------------|


 Out-Chorus
  B5         F#5/B             F#5
  E. S  E. S  E.  S  E  S  S   E. S E. S E. S E S S
|----------------------------|----------------------|
|----------------------------|----------------------|
|----------------------------|----------------------|
|-9--9--9--9-11--11-11-11-11-|-4--4-4--4-4--4-4-4-4-|
|-9--9--9--9--9---9--9--9--9-|-4--4-4--4-4--4-4-4-4-|
|-9--9--9--9--9---9--9--9--9-|-4--4-4--4-4--4-4-4-4-|
|
| Gtr II
| Q     Q     H                W
|----------------------------|----------------------|
|----------------------------|----------------------|
|------11\-------------------|-6--------------------|
|-------x--------------------|-x--------------------|
|-------9\-------------------|-4--------------------|
|----------------------------|----------------------|


  C#5                    E5        F#5
  E. S E. S E. S E S S   E. S E. S E. S S S S S
|----------------------|------------------------|
|----------------------|------------------------|
|-6--6-6--6-6--6-6-6-6-|------------------------|
|-6--6-6--6-6--6-6-6-6-|-2--2-2--2-4--4-4-4-4-4-|
|-4--4-4--4-4--4-4-4-4-|-2--2-2--2-4--4-4-4-4-4-|
|----------------------|-2--2-2--2-4--4-4-4-4-4-|
|
| W                      H.             Q
|----------------------|------------------------|
|----------------------|------------------------|
|-6--------------------|-9--------------8-------|
|-x--------------------|-x--------------x-------|
|-4--------------------|-7--------------6-------|
|----------------------|------------------------|


  B5/F#                  F#5
  E. S E. S E. S E S S   E. S E. S E. S E S S
|----------------------|----------------------|
|----------------------|----------------------|
|----------------------|----------------------|
|-4--4-4--4-4--4-4-4-4-|-4--4-4--4-4--4-4-4-4-|
|-2--2-2--2-2--2-2-2-2-|-4--4-4--4-4--4-4-4-4-|
|-4--4-4--4-4--4-4-4-4-|-4--4-4--4-4--4-4-4-4-|
|
| W                      W
|----------------------|----------------------|
|----------------------|----------------------|
|-8--------------------|-6--------------------|
|-x--------------------|-x--------------------|
|-6--------------------|-4--------------------|
|----------------------|----------------------|


  C#5                    E5        F#5
  E. S E. S E. S E S S   E. S E. S E. S S S S S
|----------------------|------------------------|
|----------------------|------------------------|
|-6--6-6--6-6--6-6-6-6-|------------------------|
|-6--6-6--6-6--6-6-6-6-|-2--2-2--2-4--4-4-4-4-4-|
|-4--4-4--4-4--4-4-4-4-|-2--2-2--2-4--4-4-4-4-4-|
|----------------------|-2--2-2--2-4--4-4-4-4-4-|
|
| W                      H.             Q
|----------------------|------------------------|
|----------------------|------------------------|
|-6--------------------|-4--------------3-------|
|-x--------------------|-x--------------x-------|
|-4--------------------|-2--------------1-------|
|----------------------|------------------------|


  B5         F#5/B             F#5
  E. S  E. S  E.  S  E  S  S   E. S E. S E. S E S S
|----------------------------|----------------------|
|----------------------------|----------------------|
|----------------------------|----------------------|
|-9--9--9--9-11--11-11-11-11-|-4--4-4--4-4--4-4-4-4-|
|-9--9--9--9--9---9--9--9--9-|-4--4-4--4-4--4-4-4-4-|
|-9--9--9--9--9---9--9--9--9-|-4--4-4--4-4--4-4-4-4-|
|
| Q     Q     H                W
|----------------------------|----------------------|
|----------------------------|----------------------|
|------11\-------------------|-6--------------------|
|-------x--------------------|-x--------------------|
|-------9\-------------------|-4--------------------|
|----------------------------|----------------------|


  C#5                    E5        F#5
  E. S E. S E. S E S S   E. S E. S E. S S S S S
|----------------------|------------------------|
|----------------------|------------------------|
|-6--6-6--6-6--6-6-6-6-|------------------------|
|-6--6-6--6-6--6-6-6-6-|-2--2-2--2-4--4-4-4-4-4-|
|-4--4-4--4-4--4-4-4-4-|-2--2-2--2-4--4-4-4-4-4-|
|----------------------|-2--2-2--2-4--4-4-4-4-4-|
|
| W                      H.             Q
|----------------------|------------------------|
|----------------------|------------------------|
|-6--------------------|-9--------------8-------|
|-x--------------------|-x--------------x-------|
|-4--------------------|-7--------------6-------|
|----------------------|------------------------|


  B5/F#                  F#5
  E. S E. S E. S E S S   E. S E. S E. S E S S
|----------------------|----------------------|
|----------------------|----------------------|
|----------------------|----------------------|
|-4--4-4--4-4--4-4-4-4-|-4--4-4--4-4--4-4-4-4-|
|-2--2-2--2-2--2-2-2-2-|-4--4-4--4-4--4-4-4-4-|
|-4--4-4--4-4--4-4-4-4-|-4--4-4--4-4--4-4-4-4-|
|
| W                      W
|----------------------|----------------------|
|----------------------|----------------------|
|-8--------------------|-6--------------------|
|-x--------------------|-x--------------------|
|-6--------------------|-4--------------------|
|----------------------|----------------------|


  C#5                    E5        F#5            B5
  E. S E. S E. S E S S   E. S E. S E. S S S S S   Q   Q  Q  Q
|----------------------|------------------------|----------------*|
|----------------------|------------------------|----------------*|
|-6--6-6--6-6--6-6-6-6-|------------------------|----------------*|
|-6--6-6--6-6--6-6-6-6-|-2--2-2--2-4--4-4-4-4-4-|-9\-------------*|
|-4--4-4--4-4--4-4-4-4-|-2--2-2--2-4--4-4-4-4-4-|-9\-------------*|
|----------------------|-2--2-2--2-4--4-4-4-4-4-|-9\-------------*|
|
| W                      H.             Q         W
|----------------------|------------------------|----------------*|
|----------------------|------------------------|----------------*|
|-6--------------------|-4--------------3-------|----------------*|
|-x--------------------|-x--------------x-------|----------------*|
|-4--------------------|-2--------------1-------|----------------*|
|----------------------|------------------------|----------------*|




--------------------------------------------------------------------------------


Duration Legend
---------------
W - whole; H - half; Q - quarter; E - 8th; S - 16th; T - 32nd; X - 64th; a - acciaccatura
+ - note tied to previous; . - note dotted; .. - note double dotted
Uncapitalized letters represent notes that are staccato (1/2 duration)
Irregular groupings are notated above the duration line
Duration letters will always appear directly above the note/fret number it represents the
duration for.  Duration letters with no fret number below them represent rests.  Multi-
bar rests are notated in the form Wxn, where n is the number of bars to rest for.  Low
melody durations appear below the staff

Tablature Legend
----------------
 h   - hammer-on
 p   - pull-off
 b   - bend
 pb  - pre-bend
 r   - bend release (if no number after the r, then release immediately)
 /\  - slide into or out of (from/to "nowhere")
 s   - legato slide
 S   - shift slide
 - natural harmonic
[n]  - artificial harmonic
n(n) - tapped harmonic
 ~   - vibrato
 tr  - trill
 T   - tap
 TP  - trem. picking
 PM  - palm muting
\n/  - tremolo bar dip; n = amount to dip
 \n  - tremolo bar down
 n/  - tremolo bar up
/n\  - tremolo bar inverted dip
 =   - hold bend; also acts as connecting device for hammers/pulls
 <> - volume swell (louder/softer)
 x   - on rhythm slash represents muted slash
 o   - on rhythm slash represents single note slash

Misc Legend
-----------
 |  - bar
||  - double bar
||o - repeat start
o|| - repeat end
*|  - double bar (ending)
 :  - bar (freetime)
 $  - Segno
 &  - Coda
Tempo markers -  = BPM(8/16=s8/s16), where s8 = swing 8ths, s16 = swing 16ths

Tap to rate this tab
 
# A B C D E F G H I J K L M N O P Q R S T U V W X Y Z