Song name
# A B C D E F G H I J K L M N O P Q R S T U V W X Y Z

Papa Roach - Take Me tab

Gtr I (C# G# C# F# A# D#) - 'Jerry - Guitar 1'
Gtr II (C# G# C# F# A# D#) - 'Jerry - Guitar 2 '


 Intro
  Q=92
  F/D        C5/F        Bb/D       D5/G
 4/4
  Gtr I
  E.. E T E. E. S. T E   E.. E T E. E. S. T E
|----------------------|----------------------|
|----------------------|----------------------|
|-2---2----------------|-3---3----------------|
|-3---3-x-x--5--5--x-x-|-3---3-x-x--7--7--x-x-|
|-5---5-x-x--3--3--x-x-|-5---5-x-x--5--5--x-x-|
|-------x-x--3--3--x-x-|-------x-x--5--5--x-x-|


  F/D        C5/F        Bb/D       D5/G
  E.. E T E. E. S. T E   E.. E T E. E. S. E T
|----------------------|----------------------|
|----------------------|----------------------|
|-2---2----------------|-3---3----------------|
|-3---3-x-x--5--5--x-x-|-3---3-x-x--7--7------|
|-5---5-x-x--3--3--x-x-|-5---5-x-x--5--5------|
|-------x-x--3--3--x-x-|-------x-x--5--5------|


 Pre-Verse
  Dm         C5/F        Bb/D       D5/G
  Gtrs I, II
  E.. E T E. E. S. T E   E.. E T E. E. S. T E
|----------------------|----------------------|
|----------------------|----------------------|
|-2---2----------------|-3---3----------------|
|-3---3-x-x--5--5--x-x-|-3---3-x-x--7--7--x-x-|
|-5---5-x-x--3--3--x-x-|-5---5-x-x--5--5--x-x-|
|-0---0-x-x--3--3--x-x-|-------x-x--5--5--x-x-|


  Dm         C5/F        Bb/D       D5/G
  E.. E T E. E. S. T E   E.. E T E. E. E S +S
|----------------------|-----------------------|
|----------------------|-----------------------|
|-2---2----------------|-3---3-----------------|
|-3---3-x-x--5--5--x-x-|-3---3-x-x--7--7-7-(7)-|
|-5---5-x-x--3--3--x-x-|-5---5-x-x--5--5-5-(5)-|
|-0---0-x-x--3--3--x-x-|-------x-x--5--5-5-(5)-|


   Verse
    N.C.
    Gtr I
    PM------------------------|       PM------------------------|
    S S S S S S S S S S S S S S S S   S S S S S S S S S S S S S S S S
||----------------------------------|-----------------------------------||
||o---------------------------------|----------------------------------o||
||----------------------------------|-----------------------------------||
||--------7-7-3-3-5-5-3-3-----------|-------8-8-----7-7-----------------||
||o-5-5-5-----------------3-3-------|-5-5-5-----8-8-----5-5------------o||
||----------------------------3-3p0-|-----------------------5-5-0-0h5---||


                                                Gtrs I, II
  PM------------------------|       PM----------|
  S S S S S S S S S S S S S S S S   S S S S S S S S S S S S S S S S
|---------------------------------|---------------------------------|
|---------------------------------|---------------------------------|
|---------------------------------|---------------------------------|
|-------7-7-3-3-5-5-3-3-----------|-------8-8-----7-7---------------|
|-5-5-5-----------------3-3-------|-5-5-5-----8-8-----8-8-----------|
|---------------------------3-3p0-|-----------------------0-0-0-0-0-|


 Pre-Chorus
  Bb5F5/Bb      C5  G5/C
  Q   H.         Q   H.
|-------------|------------|
|-------------|------------|
|-------------|------------|
|-8--10-------|-10--12-----|
|-8---8-------|-10--10-----|
|-8---8-------|-10--10-----|


  D5           C5     Bb5        F5       C5
   E.  S  T. S  S. T. Q.   S S   Q.   S S  Q.    S  S
|------------------------------|----------------------|
|------------------------------|----------------------|
|------------------------------|----------------------|
|-12--12-12----10-----8----8-8-|-3----3-3-10----10-10-|
|-12--12-12----10-----8----8-8-|-3----3-3-10----10-10-|
|-12--12-12----10-----8----8-8-|-3----3-3-10----10-10-|


  D5           C5     Bb5        F5       F5/E
   E.  S  T. S  S. T. Q.   S S   Q.   S S S S S S S S S S
|------------------------------|----------------------------|
|------------------------------|----------------------------|
|------------------------------|----------------------------|
|-12--12-12----10-----8----8-8-|-3----3-3-3-3-3-3-3-3-3-3---|
|-12--12-12----10-----8----8-8-|-3----3-3-3-3-3-3-3-3-3-3---|
|-12--12-12----10-----8----8-8-|-3----3-3-2-2-2-2-2-2-2-2---|


 Chorus
  Dm         C5/F        Bb/D       D5/G
  E.. E T E. E. S. T E   E.. E T E. E. S. T E
|----------------------|----------------------|
|----------------------|----------------------|
|-2---2----------------|-3---3----------------|
|-3---3-x-x--5--5--x-x-|-3---3-x-x--7--7--x-x-|
|-5---5-x-x--3--3--x-x-|-5---5-x-x--5--5--x-x-|
|-0---0-x-x--3--3--x-x-|-------x-x--5--5--x-x-|


  Dm         C5/F        Bb/D       D5/G
  E.. E T E. E. S. T E   E.. E T E. E. E S +S
|----------------------|-----------------------|
|----------------------|-----------------------|
|-2---2----------------|-3---3-----------------|
|-3---3-x-x--5--5--x-x-|-3---3-x-x--7--7-7-(7)-|
|-5---5-x-x--3--3--x-x-|-5---5-x-x--5--5-5-(5)-|
|-0---0-x-x--3--3--x-x-|-------x-x--5--5-5-(5)-|


   Verse
    N.C.
    Gtr I
    PM------------------------|       PM------------------------|
    S S S S S S S S S S S S S S S S   S S S S S S S S S S S S S S S S
||----------------------------------|-----------------------------------||
||o---------------------------------|----------------------------------o||
||----------------------------------|-----------------------------------||
||--------7-7-3-3-5-5-3-3-----------|-------8-8-----7-7-----------------||
||o-5-5-5-----------------3-3-------|-5-5-5-----8-8-----5-5------------o||
||----------------------------3-3p0-|-----------------------5-5-0-0h5---||


                                                Gtrs I, II
  PM------------------------|       PM----------|
  S S S S S S S S S S S S S S S S   S S S S S S S S S S S S S S S S
|---------------------------------|---------------------------------|
|---------------------------------|---------------------------------|
|---------------------------------|---------------------------------|
|-------7-7-3-3-5-5-3-3-----------|-------8-8-----7-7---------------|
|-5-5-5-----------------3-3-------|-5-5-5-----8-8-----8-8-----------|
|---------------------------3-3p0-|-----------------------0-0-0-0-0-|


 Pre-Chorus
  Bb5F5/Bb      C5  G5/C
  Q   H.         Q   H.
|-------------|------------|
|-------------|------------|
|-------------|------------|
|-8--10-------|-10--12-----|
|-8---8-------|-10--10-----|
|-8---8-------|-10--10-----|


  D5           C5     Bb5        F5       C5
   E.  S  T. S  S. T. Q.   S S   Q.   S S  Q.    S  S
|------------------------------|----------------------|
|------------------------------|----------------------|
|------------------------------|----------------------|
|-12--12-12----10-----8----8-8-|-3----3-3-10----10-10-|
|-12--12-12----10-----8----8-8-|-3----3-3-10----10-10-|
|-12--12-12----10-----8----8-8-|-3----3-3-10----10-10-|


  D5           C5     Bb5        F5       F5/E
   E.  S  T. S  S. T. Q.   S S   Q.   S S S S S S S S S S
|------------------------------|----------------------------|
|------------------------------|----------------------------|
|------------------------------|----------------------------|
|-12--12-12----10-----8----8-8-|-3----3-3-3-3-3-3-3-3-3-3---|
|-12--12-12----10-----8----8-8-|-3----3-3-3-3-3-3-3-3-3-3---|
|-12--12-12----10-----8----8-8-|-3----3-3-2-2-2-2-2-2-2-2---|


   Chorus
    Dm         C5/F        Bb/D       D5/G
    E.. E T E. E. S. T E   E.. E T E. E. S. T E
||-----------------------|----------------------|
||o----------------------|----------------------|
||--2---2----------------|-3---3----------------|
||--3---3-x-x--5--5--x-x-|-3---3-x-x--7--7--x-x-|
||o-5---5-x-x--3--3--x-x-|-5---5-x-x--5--5--x-x-|
||--0---0-x-x--3--3--x-x-|-------x-x--5--5--x-x-|


  Dm         C5/F        Bb/D       D5/G
  E.. E T E. E. S. T E   E.. E T E. E. E S +S
|----------------------|-------------------------||
|----------------------|------------------------o||
|-2---2----------------|-3---3-------------------||
|-3---3-x-x--5--5--x-x-|-3---3-x-x--7--7-7-(7)---||
|-5---5-x-x--3--3--x-x-|-5---5-x-x--5--5-5-(5)--o||
|-0---0-x-x--3--3--x-x-|-------x-x--5--5-5-(5)---||


 Bridge
  Dm                               F/D        Bb5  G5 A5
  W          +H     +Q   S S S S   W          H    Q  Q
|----------|---------------------|----------|--------------|
|----------|---------------------|----------|--------------|
|-2--------|-(2)----(2)----------|-2--------|--------------|
|-3--------|-(3)----(3)--x-x-x-x-|-3--------|-8----5--7----|
|-5--------|-(5)----(5)--x-x-x-x-|-5--------|-8----5--7----|
|-0--------|-(0)----(0)--x-x-x-x-|----------|-8----5--7----|


  F/D        C5/F        Bb/D       D5/G
  Gtr I
  E.. E T E. E. S. T E   E.. E T E. E. S. T E
|----------------------|----------------------|
|----------------------|----------------------|
|-2---2----------------|-3---3----------------|
|-3---3-x-x--5--5--x-x-|-3---3-x-x--7--7--x-x-|
|-5---5-x-x--3--3--x-x-|-5---5-x-x--5--5--x-x-|
|-------x-x--3--3--x-x-|-------x-x--5--5--x-x-|


  F/D        C5/F        Bb/D       D5/G
  E.. E T E. E. S. T E   E.. E T E. E. S. E T
|----------------------|----------------------|
|----------------------|----------------------|
|-2---2----------------|-3---3----------------|
|-3---3-x-x--5--5--x-x-|-3---3-x-x--7--7------|
|-5---5-x-x--3--3--x-x-|-5---5-x-x--5--5------|
|-------x-x--3--3--x-x-|-------x-x--5--5------|


  Dm      D5F5G5N.C.              Dm      D5F5G5N.C.
  Gtrs I, II
  E.. +S. S S S S S S S S S S S   E.. +S. S S S  S  S  S  S S S S S
|-------------------------------|-----------------------------------|
|-------------------------------|-----------------------------------|
|-2---(2)-------7-7-7-7-5-5-5-5-|-2---(2)-------10-10-10-10-9-9-9-9-|
|-3---(3)-0-3-5-x-x-x-x-x-x-x-x-|-3---(3)-0-3-5--x--x--x--x-x-x-x-x-|
|-5---(5)-0-3-5-5-5-5-5-3-3-3-3-|-5---(5)-0-3-5--8--8--8--8-7-7-7-7-|
|-0---(0)-0-3-5-----------------|-0---(0)-0-3-5---------------------|


  Bb5     D5F5G5Bb5     A5        C5        D5F5G5N.C.
  E.. +S. S S S S S S S S S S S    E..  +S. S S S  S  S  S  S  S  S  S  S
|-------------------------------|-----------------------------------------|
|-------------------------------|-----------------------------------------|
|-------------------------------|-----------------15-15-15-15-14-14-14-14-|
|-8---(8)-0-3-5-8-8-8-8-7-7-7-7-|-10---(10)-0-3-5--x--x--x--x--x--x--x--x-|
|-8---(8)-0-3-5-8-8-8-8-7-7-7-7-|-10---(10)-0-3-5-13-13-13-13-12-12-12-12-|
|-8---(8)-0-3-5-8-8-8-8-7-7-7-7-|-10---(10)-0-3-5-------------------------|


 Pre-Chorus
  D5           C5     Bb5        F5       C5
   E.  S  T. S  S. T. Q.   S S   Q.   S S  Q.    S  S
|------------------------------|----------------------|
|------------------------------|----------------------|
|------------------------------|----------------------|
|-12--12-12----10-----8----8-8-|-3----3-3-10----10-10-|
|-12--12-12----10-----8----8-8-|-3----3-3-10----10-10-|
|-12--12-12----10-----8----8-8-|-3----3-3-10----10-10-|


  D5           C5     Bb5        F5
   E.  S  T. S  S. T. Q.   S S   Q.   S S H
|------------------------------|----------------|
|------------------------------|----------------|
|------------------------------|----------------|
|-12--12-12----10-----8----8-8-|-3----3-3-x/----|
|-12--12-12----10-----8----8-8-|-3----3-3-x/----|
|-12--12-12----10-----8----8-8-|-3----3-3-x/----|


   Chorus
    Dm                     Bb/D       D5/G
    E.. E T E. E. S. T E   E.. E T E. E. S. T E
||-----------------------|----------------------|
||o----------------------|----------------------|
||--2---2----------------|-3---3----------------|
||--3---3-x-x--5--5--x-x-|-3---3-x-x--7--7--x-x-|
||o-5---5-x-x--3--3--x-x-|-5---5-x-x--5--5--x-x-|
||--0---0-x-x--3--3--x-x-|-------x-x--5--5--x-x-|


  Dm         C5/F        Bb/D       D5/G
  E.. E T E. E. S. T E   E.. E T E. E. E S +S    4x
|----------------------|-------------------------||
|----------------------|------------------------o||
|-2---2----------------|-3---3-------------------||
|-3---3-x-x--5--5--x-x-|-3---3-x-x--7--7-7-(7)---||
|-5---5-x-x--3--3--x-x-|-5---5-x-x--5--5-5-(5)--o||
|-0---0-x-x--3--3--x-x-|-------x-x--5--5-5-(5)---||


 Outro
  Dm
  W          +W           +W           +W
|----------|------------|------------|--------*|
|----------|------------|------------|--------*|
|-2--------|-(2)--------|-(2)--------|-(2)----*|
|-3--------|-(3)--------|-(3)--------|-(3)----*|
|-5--------|-(5)--------|-(5)--------|-(5)----*|
|-0--------|-(0)--------|-(0)--------|-(0)----*|




--------------------------------------------------------------------------------


Duration Legend
---------------
W - whole; H - half; Q - quarter; E - 8th; S - 16th; T - 32nd; X - 64th; a - acciaccatura
+ - note tied to previous; . - note dotted; .. - note double dotted
Uncapitalized letters represent notes that are staccato (1/2 duration)
Irregular groupings are notated above the duration line
Duration letters will always appear directly above the note/fret number it represents the
duration for.  Duration letters with no fret number below them represent rests.  Multi-
bar rests are notated in the form Wxn, where n is the number of bars to rest for.  Low
melody durations appear below the staff

Tablature Legend
----------------
 h   - hammer-on
 p   - pull-off
 b   - bend
 pb  - pre-bend
 r   - bend release (if no number after the r, then release immediately)
 /\  - slide into or out of (from/to "nowhere")
 s   - legato slide
 S   - shift slide
 - natural harmonic
[n]  - artificial harmonic
n(n) - tapped harmonic
 ~   - vibrato
 tr  - trill
 T   - tap
 TP  - trem. picking
 PM  - palm muting
\n/  - tremolo bar dip; n = amount to dip
 \n  - tremolo bar down
 n/  - tremolo bar up
/n\  - tremolo bar inverted dip
 =   - hold bend; also acts as connecting device for hammers/pulls
 <> - volume swell (louder/softer)
 x   - on rhythm slash represents muted slash
 o   - on rhythm slash represents single note slash

Misc Legend
-----------
 |  - bar
||  - double bar
||o - repeat start
o|| - repeat end
*|  - double bar (ending)
 :  - bar (freetime)
 $  - Segno
 &  - Coda
Tempo markers -  = BPM(8/16=s8/s16), where s8 = swing 8ths, s16 = swing 16ths

Tap to rate this tab
# A B C D E F G H I J K L M N O P Q R S T U V W X Y Z