Song name
# A B C D E F G H I J K L M N O P Q R S T U V W X Y Z

Papa Roach - No Matter What tab

Artist: Papa Roach
Song : No Matter What

E||----------------------------------------------------|
B||------2-----4--------6--/7-----6--/7----------------|
G||--------------6---------6---------6-----------------|
D||----4-----------------------------------------------|
A||---2------4--------6---------6----------------------|
d||----------------------------------------------------|

    I need you right here, by my side
    Youre everything Im not in my life


E||----------------------------------------------------|
B||-----6--/7-----6--/7------4----------2--------------|
G||--------6---------6---------6------4----------------|
D||---8-------- 8----------6--------4------------------|
A||---6-------- 6----------4--------2------------------|
d||----------------------------------------------------|

    Were indestructable, we are untouchable Nothing can take us down tonight
    You are so beautiful, it should be criminal that you could be mine


E||----------------------------------------------------|
B||----------------------------------------------------|
G||-------------4-------------------6------------------|
D||-------------4----------1--------6------------------|
A||-------------2----------1--------4------------------|
d||------------------------1---------------------------|
                 ....       ....      ....
     And we will make it out alive
     Ill promise you this love will never die!

E||---------------------------------------------------------|-------|
B||---------------------------------------------------------|-------|
G||---------------------------------------------------------|--8-8--|
D||---4---4-3------6---4-6-------1---4-3------4---4-6-8/--1-|--8-8--|
A||---4-------4/---6--------3/---1-------6/---4-----------1-|--6-6--|
d||---4------------4-------------1------------2-----------1-|-------|
       ...          ...           ...          ...
        No matter what, I got your back
        Ill take a bullet for you if it comes to that
        I swear to God that in the bitter end
        Were gonna be the last ones standing

So believe me when I say, youre the one
Theyll never forgive us for the things weve done

And we will make it out alive
Ill promise you this love will never die!

No matter what, I got your back
I'll take a bullet for you if it comes to that
I swear to God that in the bitter end
We're gonna be the last ones standing
We'll never fight, we'll never fade
I'll promise you forever and my soul today
No matter what until the bitter end
We're gonna be the last ones standing


E||-----------------------------------|
B||-----------------------------------|
G||------------------6----------------|
D||---1----4----6----6----------------|
A||---1----4----6----4----------------|
d||---1----2----4---------------------|
       ...  ...  ...  ...

E||----------------------------------|
B||----------------------------------|
G||--------3-----4-------------------|
D||--1-----3-----4-------------------|
A||--1-----1-----2-------------------|
d||--1-------------------------------|
      ....  ....   ...
      And everybody said that we would never last,
      And if they saw us now I bet they'd take it back
      It doesn't matter what we do or what we say
      Cause nothing matters anyway


E||------------------------------------------------------------|
B||------------------------------------------------------------|
G||------------------------------------------------------------|
D||---4---4-3------6---4-6-------1---4-3------4---4-6-8/--1----|
A||---4-------4/---6--------3/---1-------6/---4-----------1----|
d||---4------------4-------------1------------2-----------1----|

      No matter what, I got your back
      I'll take a bullet for you if it comes to that
      I swear to God that in the bitter end
      We're gonna be the last ones standing
      We'll never fight (We'll never fight) We'll never fade (We'll never fade)
      No matter what until the bitter end
      We're gonna be the last ones standing
Tap to rate this tab
 
# A B C D E F G H I J K L M N O P Q R S T U V W X Y Z