Song name
# A B C D E F G H I J K L M N O P Q R S T U V W X Y Z

Papa Roach - Sometimes tab

Gtr I (C# G# C# F# A# D#) - 'Jerry - Acoustic '
Gtr II (C# G# C# F# A# D#) - 'Background sound 1'
Gtr III (C# G# C# F# A# D#) - 'Background sound 2'
Gtr IV (C# G# C# F# A# D#) - 'Jerry - Main '
Gtr V (C# G# C# F# A# D#) - 'Jerry - Solo'


 Intro
  Q=94
  N.C.
 4/4
  Gtr I
  E S E E S S S E E S S   E S E E S S S E E S S
|-----1---------5-----5-|-----1---------5-----5-|
|-----------------6-----|-----------------6-----|
|---3---3-----7-----7---|---3---3-----7-----7---|
|-----------------------|-----------------------|
|-1-------1-5-----------|-1-------1-5-----------|
|-----------------------|-----------------------|


   Verse
    E S E E S S S E E S S   E S E E S S S E E S S
||------1---------5-----5-|-----1---------5-----5--||
||o-----------------6-----|-----------------6-----o||
||----3---3-----7-----7---|---3---3-----7-----7----||
||------------------------|------------------------||
||o-1-------1-5-----------|-1-------1-5-----------o||
||------------------------|------------------------||


   E S E E S  S S E E S S    E S E E S  S S E E S S
|------1----------5-----5-|------1----------5-----5-|
|-------------------6-----|-------------------6-----|
|----3---3------7-----7---|----3---3------7-----7---|
|-------------------------|-------------------------|
|--1-------1--5-----------|--1-------1--5-----------|
|-------------------------|-------------------------|
|
| Gtr II
|  H          H              H          H
|-------------------------|-------------------------|
|-------------------------|-------------------------|
|-10---------14-----------|-15---------14-----------|
|--x----------x-----------|-------------x-----------|
|--8---------12-----------|-13---------12-----------|
|-------------------------|-------------------------|


   E S E E S  S S E E S S    E S E E S  S S E E S S
|------1----------5-----5-|------1----------5-----5-|
|-------------------6-----|-------------------6-----|
|----3---3------7-----7---|----3---3------7-----7---|
|-------------------------|-------------------------|
|--1-------1--5-----------|--1-------1--5-----------|
|-------------------------|-------------------------|
|
|  H          H              H          H
|-------------------------|-------------------------|
|-------------------------|-------------------------|
|-10---------14-----------|-15---------14-----------|
|--x----------x-----------|-------------x-----------|
|--8---------12-----------|-13---------12-----------|
|-------------------------|-------------------------|


   E  S E E E S E  E S S    E S  E E E    S  E E S  S
|------------------------|----------------------------|
|------------------------|----------------------------|
|-------7-------7------7-|------10----------10-----10-|
|---------5--------5-----|---------8-----------8------|
|-----5-------5------5---|----8-----------8------8----|
|--5--------5------------|--8--------8----------------|
|
| Gtr III
|  H.              Q        H           H
|------------------------|----------------------------|
|------------------------|----------------------------|
|-12--------------14-----|-15----------14-------------|
|------------------------|----------------------------|
|------------------------|----------------------------|
|------------------------|----------------------------|


 Chorus
  D5    C5/F   Bb5      F5/BBb5BbF5/BbBb5
  Gtr IV
  Q  Q  Q  S S E   +Q    Q  Q  E  E
|----------------|------------------|
|----------------|------------------|
|----------------|------------------|
|-0--0--5--x-x-8-|-(8)--10--8--8-10-|
|-0--0--3--x-x-8-|-(8)---8--8--8--8-|
|-0--0--3--x-x-8-|-(8)---8--8--8--8-|


        C5       D5                C5/F
  Q  Q   E  E  E E   +E  E E S S S S S S S S S S
|------------------|-----------------------------|
|------------------|-----------------------------|
|------------------|-----------------------------|
|-8--8--10-10-10-0-|-(0)-0-0-0-x-x-5-5-5-5-5-5-5-|
|-8--8--10-10-10-0-|-(0)-0-0-0-x-x-3-3-3-3-3-3-3-|
|-8--8--10-10-10-0-|-(0)-0-0-0-x-x-3-3-3-3-3-3-3-|


  D5    C5/F   Bb5      F5/BBb5BbF5/BbBb5   C5        D5  Dm
  Q  Q  Q  S S E   +Q    Q  Q  E  E   Q  Q   E  E S S E    W
|----------------|------------------|-------------------|--1-----|
|----------------|------------------|-------------------|--3-----|
|----------------|------------------|-------------------|--2-----|
|-0--0--5--5-5-8-|-(8)--10--8--8-10-|-8--8--10-10-x-x-0-|-(0)----|
|-0--0--3--3-3-8-|-(8)---8--8--8--8-|-8--8--10-10-x-x-0-|-(0)----|
|-0--0--3--3-3-8-|-(8)---8--8--8--8-|-8--8--10-10-x-x-0-|-(0)----|


   Verse
    N.C.
    Gtr I
     E S E E S  S S E E S S    E S E E S  S S E E S S
||-------1----------5-----5-|------1----------5-----5-|
||o-------------------6-----|-------------------6-----|
||-----3---3------7-----7---|----3---3------7-----7---|
||--------------------------|-------------------------|
||o--1-------1--5-----------|--1-------1--5-----------|
||--------------------------|-------------------------|
|
|   Gtr II
|    H          H              H          H
||--------------------------|-------------------------|
||o-------------------------|-------------------------|
||--10---------14-----------|-15---------14-----------|
||---x----------x-----------|-------------x-----------|
||o--8---------12-----------|-13---------12-----------|
||--------------------------|-------------------------|


   E S E E S  S S E E S S    E S E E S  S S E E S S
|------1----------5-----5-|------1----------5-----5----||
|-------------------6-----|-------------------6-------o||
|----3---3------7-----7---|----3---3------7-----7------||
|-------------------------|----------------------------||
|--1-------1--5-----------|--1-------1--5-------------o||
|-------------------------|----------------------------||
|
|  H          H              H          H
|-------------------------|----------------------------||
|-------------------------|---------------------------o||
|-10---------14-----------|-15---------14--------------||
|--x----------x-----------|-------------x--------------||
|--8---------12-----------|-13---------12-------------o||
|-------------------------|----------------------------||


                                               Gtr IV
   E  S E E E S E  E S S    E S  E E E    S  E S S S S
|------------------------|-----------------------------|
|------------------------|-----------------------------|
|-------7-------7------7-|------10----------10-7-7-7-7-|
|---------5--------5-----|---------8-----------x-x-x-x-|
|-----5-------5------5---|----8-----------8----5-5-5-5-|
|--5--------5------------|--8--------8-----------------|
|
| Gtr III                                      Gtr IV
|  H.              Q        H           Q      S S S S
|------------------------|-----------------------------|
|------------------------|-----------------------------|
|-12--------------14-----|-15----------14------7-7-7-7-|
|------------------------|---------------------x-x-x-x-|
|------------------------|---------------------5-5-5-5-|
|------------------------|-----------------------------|


  D5    C5/F   Bb5      F5/BBb5  F5/BbBb5
  Q  Q  Q  S S E   +Q    Q  Q  E  E
|----------------|------------------|
|----------------|------------------|
|----------------|------------------|
|-0--0--5--x-x-8-|-(8)--10--8--8-10-|
|-0--0--3--x-x-8-|-(8)---8--8--8--8-|
|-0--0--3--x-x-8-|-(8)---8--8--8--8-|


        C5       D5                C5/F
  Q  Q   E  E  E E   +E  E E S S S S S S S S S S
|------------------|-----------------------------|
|------------------|-----------------------------|
|------------------|-----------------------------|
|-8--8--10-10-10-0-|-(0)-0-0-0-x-x-5-5-5-5-5-5-5-|
|-8--8--10-10-10-0-|-(0)-0-0-0-x-x-3-3-3-3-3-3-3-|
|-8--8--10-10-10-0-|-(0)-0-0-0-x-x-3-3-3-3-3-3-3-|


  D5    C5/F   Bb5      F5/BBb5  F5/BbBb5
  Q  Q  Q  S S E   +Q    Q  Q  E  E
|----------------|------------------|
|----------------|------------------|
|----------------|------------------|
|-0--0--5--5-5-8-|-(8)--10--8--8-10-|
|-0--0--3--3-3-8-|-(8)---8--8--8--8-|
|-0--0--3--3-3-8-|-(8)---8--8--8--8-|


          A5G5D5F5D5               C5/F
  Q  Q  S S S S S S E   +E  E Q  S S S S S S S S
|---------------------|---------------------------|
|---------------------|---------------------------|
|---------------------|---------------------------|
|-8--8--8-7-5-0-3-0-0-|-(0)-0-0--0-5-5-5-5-5-5-5--|
|-8--8--8-7-5-0-3-0-0-|-(0)-0-0--0-3-3-3-3-3-3-3--|
|-8--8--8-7-5-0-3-0-0-|-(0)-0-0--0-3-3-3-3-3-3-3--|


 Bridge
  Bb5      G5/C        D5
  Q  E S S  E  E  S  S  E    +Q    E     E  E     E     E     E
|-------------------------|----------------------------------------|
|-------------------------|----------------------------------------|
|-------------------------|----------------------------------------|
|-8--8-8-8-12-12-12-12-12-|-(12)--12----12-12----12----12----12----|
|-8--8-8-8-10-10-10-10-12-|-(12)--12----12-12----12----12----12----|
|-8--8-8-8-10-10-10-10-12-|-(12)--12----12-12----12----12----12----|
|
| Gtr V
| W                           Q    S  Q        S  S  S  S  S  S  S
|-------------------------|----------------------------------------|
|-------------------------|-------10-10-------13-13-13-13-13-13-13-|
|-------------------------|----------------------------------------|
|-------------------------|----------------------------------------|
|-------------------------|----------------------------------------|
|-------------------------|----------------------------------------|


  Bb5      G5/C        D5
  Q  E S S  E  E  S  S  E    +Q    E     E  E     E     E     E
|-------------------------|-----------------------------------------|
|-------------------------|-----------------------------------------|
|-------------------------|-----------------------------------------|
|-8--8-8-8-12-12-12-12-12-|-(12)--12----12-12----12----12----12-----|
|-8--8-8-8-10-10-10-10-12-|-(12)--12----12-12----12----12----12-----|
|-8--8-8-8-10-10-10-10-12-|-(12)--12----12-12----12----12----12-----|
|
| W                           Q    S  Q        S  S  S  S  S  S  S
|-------------------------|-----------------------------------------|
|-------------------------|-------10-10-------13-13-13-13-13-13-13--|
|-------------------------|-----------------------------------------|
|-------------------------|-----------------------------------------|
|-------------------------|-----------------------------------------|
|-------------------------|-----------------------------------------|


  Bb5      G5/C      D5             C5/F
                 PM|
  Q  E S S  E  E S S E   +Q   E E S S S S S S S S
|----------------------|--------------------------|
|----------------------|--------------------------|
|----------------------|--------------------------|
|-8--8-8-8-12-12-----0-|-(0)--0-0-0-5-5-5-5-5-5-5-|
|-8--8-8-8-10-10-0-0-0-|-(0)--0-0-0-3-3-3-3-3-3-3-|
|-8--8-8-8-10-10-0-0-0-|-(0)--0-0-0-3-3-3-3-3-3-3-|


  Bb5          A5
  Q  E E E E E E   +E  E E E E E E E
|----------------|-------------------|
|----------------|-------------------|
|----------------|-------------------|
|-8--8-8-8-8-8-7-|-(7)-7-7-7-7-7-7-7-|
|-8--8-8-8-8-8-7-|-(7)-7-7-7-7-7-7-7-|
|-8--8-8-8-8-8-7-|-(7)-7-7-7-7-7-7-7-|


 Guitar Solo
  Bb5        C5              D5
   Q   E S S  E   E     S  S  E    +Q    E  E     E  E     E  E
|-------------------------------|-------------------------------|
|-------------------------------|-------------------------------|
|-------------------------------|-------------------------------|
|--8---8-8-8-10--10----10-10-12-|-(12)--12-12----12-12----12-12-|
|--8---8-8-8-10--10----10-10-12-|-(12)--12-12----12-12----12-12-|
|--8---8-8-8-10--10----10-10-12-|-(12)--12-12----12-12----12-12-|
|
| Gtr V
|  Q   Q      E.     S  S  S  E    +Q.      S  S  E  S  S  E  E
|-------------------------------|-------------------------------|
|-------------------------------|-------------------------------|
|-14--14-----14-----14-15-14----|-------------------------10----|
|----------------------------15-|-(15)-----------10-10h12-----8S|
|-------------------------------|----------10h12----------------|
|-------------------------------|-------------------------------|


  Bb5          C5               D5
   Q   E  S  S  E    E     S  S  E
|----------------------------------|
|----------------------------------|
|----------------------------------|
|--8---8--8--8-10---10----10-10-12-|
|--8---8--8--8-10---10----10-10-12-|
|--8---8--8--8-10---10----10-10-12-|
|
|  Q   E.    S  S S  S  S  S  S  E
|----------------------------------|
|----------------------------------|
|--------------10-9-------------14-|
|-12--12----12------12-10----------|
|-------------------------12-10----|
|----------------------------------|


                    F5    D5 F5
    Q    E  E  S     E     S  E  +E
|------------------------------------|
|------------------------------------|
|------------------------------------|
|--12---12-12-12----15----12-15-(15)-|
|--12---12-12-12----15----12-15-(15)-|
|--12---12-12-12----15----12-15-(15)-|
|
|  +Q    E  E  E        E     Q
|------------------------------------|
|----------13-13b15----13----13------|
|-(14)--14---------------------------|
|------------------------------------|
|------------------------------------|
|------------------------------------|


  A5       Bb5                 C5     N.C.
  Q  E S S E    E    S  S  E    E  E   S  S  H         +E
|----------------------------|-----------------------------|
|----------------------------|-----------------------------|
|----------------------------|--------14h15-14--------(14)-|
|-7--7-7-7-8----8----8--8--8-|-10--------------------------|
|-7--7-7-7-8----8----8--8--8-|-10--------------------------|
|-7--7-7-7-8----8----8--8--8-|-10--------------------------|
|
| Q  Q     S  E    E    E.      E +Q         E  E E E   E
|----------------------------|-----------------------------|
|----------------------------|-----------------------------|
|-9--9-----9-10---10---10----|--5-(5)--------9-10-9-7---5--|
|-x--x-----x--x----x----x----|--x-(x)--------x--x-x-x---x--|
|-7--7-----7--8----8----8----|--3-(3)--------7--8-7-5---3--|
|----------------------------|-----------------------------|


 Chorus
  D5    C5/F   Bb5      F5/BBb5  F5/BbBb5
  Q  Q  Q  S S E   +Q    Q  Q  E  E
|----------------|------------------|
|----------------|------------------|
|----------------|------------------|
|-0--0--5--x-x-8-|-(8)--10--8--8-10-|
|-0--0--3--x-x-8-|-(8)---8--8--8--8-|
|-0--0--3--x-x-8-|-(8)---8--8--8--8-|


        C5       D5                C5/F
  Q  Q   E  E  E E   +E  E E S S S S S S S S S S
|------------------|-----------------------------|
|------------------|-----------------------------|
|------------------|-----------------------------|
|-8--8--10-10-10-0-|-(0)-0-0-0-x-x-5-5-5-5-5-5-5-|
|-8--8--10-10-10-0-|-(0)-0-0-0-x-x-3-3-3-3-3-3-3-|
|-8--8--10-10-10-0-|-(0)-0-0-0-x-x-3-3-3-3-3-3-3-|


  D5    C5/F   Bb5      F5/BBb5  F5/BbBb5
  Q  Q  Q  S S E   +Q    Q  Q  E  E
|----------------|------------------|
|----------------|------------------|
|----------------|------------------|
|-0--0--5--x-x-8-|-(8)--10--8--8-10-|
|-0--0--3--x-x-8-|-(8)---8--8--8--8-|
|-0--0--3--x-x-8-|-(8)---8--8--8--8-|


          A5G5D5F5D5               C5/F
  Q  Q  S S S S S S E   +E  E Q  S S S S S S S S
|---------------------|---------------------------|
|---------------------|---------------------------|
|---------------------|---------------------------|
|-8--8--8-7-5-0-3-0-0-|-(0)-0-0--0-5-5-5-5-5-5-5--|
|-8--8--8-7-5-0-3-0-0-|-(0)-0-0--0-3-3-3-3-3-3-3--|
|-8--8--8-7-5-0-3-0-0-|-(0)-0-0--0-3-3-3-3-3-3-3--|


  D5    C5/F   Bb5
  Q  Q  Q  S S E   +Q   E S S E S S E S S
|----------------|------------------------|
|----------------|------------------------|
|----------------|------------------------|
|-0--0--5--5-5-8-|-(8)--8-8-8-8-8-8-8-8-8-|
|-0--0--3--3-3-8-|-(8)--8-8-8-8-8-8-8-8-8-|
|-0--0--3--3-3-8-|-(8)--8-8-8-8-8-8-8-8-8-|


  Bb5      C5             D5
  Q  E S S  Q   E  S  S    Q   E  S  S  E  S  S  E  S  S
|-----------------------|--------------------------------|
|-----------------------|--------------------------------|
|-----------------------|--------------------------------|
|-8--8-8-8-10--10-10-10-|-12--12-12-12-12-12-12-12-12-12-|
|-8--8-8-8-10--10-10-10-|-12--12-12-12-12-12-12-12-12-12-|
|-8--8-8-8-10--10-10-10-|-12--12-12-12-12-12-12-12-12-12-|


  D5    C5/F   Bb5                                C5        D5  Dm
  Q  Q  Q  S S E   +Q   E S S E S S E S S   Q  Q   E  E S S E    W
|----------------|------------------------|-------------------|--1-----*|
|----------------|------------------------|-------------------|--3-----*|
|----------------|------------------------|-------------------|--2-----*|
|-0--0--5--5-5-8-|-(8)--8-8-8-8-8-8-8-8-8-|-8--8--10-10-x-x-0-|-(0)----*|
|-0--0--3--3-3-8-|-(8)--8-8-8-8-8-8-8-8-8-|-8--8--10-10-x-x-0-|-(0)----*|
|-0--0--3--3-3-8-|-(8)--8-8-8-8-8-8-8-8-8-|-8--8--10-10-x-x-0-|-(0)----*|




--------------------------------------------------------------------------------


Duration Legend
---------------
W - whole; H - half; Q - quarter; E - 8th; S - 16th; T - 32nd; X - 64th; a - acciaccatura
+ - note tied to previous; . - note dotted; .. - note double dotted
Uncapitalized letters represent notes that are staccato (1/2 duration)
Irregular groupings are notated above the duration line
Duration letters will always appear directly above the note/fret number it represents the
duration for.  Duration letters with no fret number below them represent rests.  Multi-
bar rests are notated in the form Wxn, where n is the number of bars to rest for.  Low
melody durations appear below the staff

Tablature Legend
----------------
 h   - hammer-on
 p   - pull-off
 b   - bend
 pb  - pre-bend
 r   - bend release (if no number after the r, then release immediately)
 /\  - slide into or out of (from/to "nowhere")
 s   - legato slide
 S   - shift slide
 - natural harmonic
[n]  - artificial harmonic
n(n) - tapped harmonic
 ~   - vibrato
 tr  - trill
 T   - tap
 TP  - trem. picking
 PM  - palm muting
\n/  - tremolo bar dip; n = amount to dip
 \n  - tremolo bar down
 n/  - tremolo bar up
/n\  - tremolo bar inverted dip
 =   - hold bend; also acts as connecting device for hammers/pulls
 <> - volume swell (louder/softer)
 x   - on rhythm slash represents muted slash
 o   - on rhythm slash represents single note slash

Misc Legend
-----------
 |  - bar
||  - double bar
||o - repeat start
o|| - repeat end
*|  - double bar (ending)
 :  - bar (freetime)
 $  - Segno
 &  - Coda
Tempo markers -  = BPM(8/16=s8/s16), where s8 = swing 8ths, s16 = swing 16ths


Tap to rate this tab
# A B C D E F G H I J K L M N O P Q R S T U V W X Y Z