Song name
# A B C D E F G H I J K L M N O P Q R S T U V W X Y Z

Papa Roach - Carry Me tab

Taken from megachords.com

Wasn't on this site so decided to put it up.

Intro

e|--------------------|  
B|------5-------------|
G|----5---5-----------|                     4x
D|--7------7----------|
A|--------------------|
E|--------------------|

e|--------------------|  
B|------5-------------|
G|----5---5-----------|                     4x
D|--3------3----------|
A|--------------------|
E|--------------------|

Play above twice

Verse

e|--------------------|  
B|----------5---------|
G|--------------------|
D|-7--5--7------------|      2x
A|--------------------|
E|--------------------|

e|--------------------|  
B|----------1---------|
G|--------------------|
D|-3--2--3------------|     2z
A|--------------------|
E|--------------------|

I question my own existence ...

e|--------------------|  
B|-3--5----10---12----|
G|--------------------|
D|--------------------|
A|--------------------|
E|--------------------|

Chorus

e|------------------------------|  
B|------------------------------|
G|--------16------------16------|     
D|-----16----16----16------16---|
A|-14-----------13--------------|

e|------------------------------|  
B|------------------------------|
G|------------------------------|
D|---------18---------18--------|
A|-----18----18----18----18-----|
E|--16----------16--------------|


e|------------------------------|  
B|--8--6--10--8--8--6--15--13---|
G|------------------------------|
D|------------------------------|
A|------------------------------|
E|------------------------------|


I am crazy without u...


The Hardest ones to love are the ones that need it more


e|--------------------|  
B|------5-------------|
G|----5---5-----------|                     4x
D|--7------7----------|
A|--------------------|
E|--------------------|

e|--------------------|  
B|------5-------------|
G|----5---5-----------|                     4x
D|--3------3----------|
A|--------------------|
E|--------------------|



Pre Chorus 2

e|-----------------------------------------------------------------------|  
B|-3-3-3-3-3-3--5-5-5-5-5-5-----10-10-10-10-10-10---12-12-12-12-12-12----|
G|-----------------------------------------------------------------------|
D|-----------------------------------------------------------------------|
A|-----------------------------------------------------------------------|
E|-----------------------------------------------------------------------|

Chorus

e|------------------------------|  
B|------------------------------|
G|--------16------------16------|     
D|-----16----16----16------16---|
A|-14-----------13--------------|

e|------------------------------|  
B|------------------------------|
G|------------------------------|
D|---------18---------18--------|
A|-----18----18----18----18-----|
E|--16----------16--------------|


e|------------------------------|  
B|--8--6--10--8--8--6--15--13---|
G|------------------------------|
D|------------------------------|
A|------------------------------|
E|------------------------------|


The Hardest ones to love are the ones that need it more..


e|-------------------------------------|
B|-------------------------------------|
G|---55555-55555-----------------------|
D|---55555-55555--7777777777-----------|
A|---33333-22222--7777777777-----------|
E|----------------5555555555-----------|

e|-----------|  
B|-----------|
G|-----------|            10X
D|3----------|
A|3----------|
E|1----------|


e|----------|  
B|----------|
G|----------|          10X
D|5---------|
A|5---------|
E|3---------|
Tap to rate this tab
# A B C D E F G H I J K L M N O P Q R S T U V W X Y Z