Song name
# A B C D E F G H I J K L M N O P Q R S T U V W X Y Z

Papa Roach - Carry Me chords

Highlighted       Show chord diagrams
My first song in Ultimate Guitar
I hope that they like.....

Intro

e|--------------------|
B|------5-------------|
G|----5---5-----------|    4x
D|--7------7----------|
A|--------------------|
E|--------------------|

e|--------------------|         e|------------------|
B|------5-------------|         B|--------3---------|
G|----5---5-----------|    3x   G|------5---5-------|
D|--3-------3---------|         D|----3-------------|
A|--------------------|         A|------------------|
E|--------------------|         E|------------------|

Am
I've been looking for something sacred
running away from the light
F
Gotta burn all the bridges in my head
that lead me away from my life
Dm
I question my own existence,
F                       G
question the meaning of life


Chorus:
            C          G
Why don't you carry me?
           Am
Why don't you carry me?
F
I can't move on,
G
I can't live on
C        G            Am
Carry me, why don't you carry me?
F
I can't save me,
G                 Am
I am crazy without you.


e|--------------------|
B|------5-------------|
G|----5---5-----------|     4x
D|--7------7----------|
A|--------------------|
E|--------------------|


Am
It takes horns to hold up my halo
and strength to get through the fight
F
Now I'm playing my cards on the table
praying everything will be alright
Dm
I question my own existence,
F                       G
question the meaning of life


Chorus:

            C          G
Why don't you carry me?
           Am
Why don't you carry me?
F
I can't move on,
G
I can't live on
C        G            Am
Carry me, why don't you carry me?
F
I can't save me,
G                 Am
I am crazy without you.


e|--------------------|
B|------5-------------|
G|----5---5-----------|    4x
D|--7------7----------|
A|--------------------|
E|--------------------|

e|--------------------|         e|------------------|
B|------5-------------|         B|--------3---------|
G|----5---5-----------|    3x   G|------5---5-------|
D|--3-------3---------|         D|----3-------------|
A|--------------------|         A|------------------|
E|--------------------|         E|------------------|

Am
The hardest ones to love are the ones that need it most
F
The hardest ones to love are the ones that need it most
Am
The hardest ones to love are the ones that need it most
F
The hardest ones to love are the ones that need it most


e|------------------------------------------------------------------|
B|--3-3-3-3-3-3--5-5-5-5-5-5---10-10-10-10-10-10--12-12-12-12-12-12-|
G|------------------------------------------------------------------|
D|------------------------------------------------------------------|
A|------------------------------------------------------------------|
E|------------------------------------------------------------------|

Chorus:
            C          G
Why don't you carry me?
           Am
Why don't you carry me?
F
I can't move on,
G
I can't live on
C        G            Am
Carry me, why don't you carry me?
F
I can't save me,
G
I am crazy.

C                   G            Am
The hardest ones to love are the ones that need it most
F                                G
The hardest ones to love are the ones that need it the most
C                   G            Am
The hardest ones to love are the ones that need it most
F                                G
The hardest ones to love are the ones that need it the most
C      G  Am
Carry me, carry me
F         G          C
Carry me, carry me...
Tap to rate this tab
 
# A B C D E F G H I J K L M N O P Q R S T U V W X Y Z