Song name
# A B C D E F G H I J K L M N O P Q R S T U V W X Y Z

Papa Roach - Revenge tab

Gtr I (D A D G B E) - 'Jerry Horton Main'
Gtr II (D A D G B E) - 'Jerry Horton Overdub w/Wah and Modulation'


 Intro
  Moderate Rock Q=95
  E5           B5/E                    C5/F
 3/8          4/4
  Gtr I
  E +S  E.      W           +H     +E   E  +S   E.
|----------||-------------|------------------------|
|----------||o------------|------------------------|
|----------||-------------|------------------------|
|-2-(2)-2--||---4---------|-(4)----(4)--5--(5)--5--|
|-2-(2)-2--||o--2---------|-(2)----(2)--3--(3)--3--|
|-2-(2)-2--||---4---------|-(4)----(4)--5--(5)--5--|
|
| Gtr II
| E +S  E.     +W           +H     +E   E  +S   E.
|----------||-------------|------------------------|
|----------||o------------|------------------------|
|----------||-------------|------------------------|
|-9-(9)-9--||--(9)--------|-(9)----(9)-10-(10)-10--|
|----------||o------------|------------------------|
|----------||-------------|------------------------|


  1.,2.,3.                                     4.
  B5/E                     E5                  B5/E
                                              2/4
  E    H                   E    +S  E.      4x E E Q
|-------------------------------------------||--------||
|------------------------------------------o||--------||
|-------------------------------------------||--------||
|-4------------------------2----(2)-2-------||-4------||
|-2------------------------2----(2)-2------o||-2------||
|-4------------------------2----(2)-2-------||-4------||
|
| S  S S  S S  S S  S S  S S  S  S  S  S S  4x H
|-------------------------------------------||--------||
|------------------------------------------o||--------||
|-------------------------------------------||--------||
|-9h10-9h10-9h10-9h10-9h10-9h10--9h10--9-9--||--------||
|------------------------------------------o||--------||
|-------------------------------------------||--------||


 Pre-Verse
  C5/B5/E         C5/B5/E         C5/B5/E         C5/B5/E
 4/4
   E E +H.         E E +H.         E E +H.         E E +H.
|---------------|---------------|---------------|-------------||
|---------------|---------------|---------------|-------------||
|---------------|---------------|---------------|-------------||
|--5-4-(4)------|--5-4-(4)------|--5-4-(4)------|--5-4-(4)----||
|--3-2-(2)------|--3-2-(2)------|--3-2-(2)------|--3-2-(2)----||
|--5-4-(4)------|--5-4-(4)------|--5-4-(4)------|--5-4-(4)----||
|
|  E E +H.         E E +H.         E E +H.         E E +H.
|---------------|---------------|---------------|-------------||
|---------------|---------------|---------------|-------------||
|---------------|---------------|---------------|-------------||
|-10-9-(9)------|-10-9-(9)------|-10-9-(9)------|-10-9-(9)----||
|---------------|---------------|---------------|-------------||
|---------------|---------------|---------------|-------------||


   Verse
    $
    N.C.                                    E5
                                         2/4
    E E E E E E E E   E E E E E E E E  4x E E +S  E.
||------------------|------------------||------------||
||o-----------------|-----------------o||------------||
||------------------|------------------||------------||
||------------------|------------------||---2-(2)-2--||
||o---9-7-9-5-9-4-5-|---9-7-9-5-9-4-5-o||---2-(2)-2--||
||--9---------------|-9----------------||---2-(2)-2--||
|
|   W                 W                4x H
||--7---------------|-7----------------||------------||
||o-----------------|-----------------o||------------||
||------------------|------------------||------------||
||------------------|------------------||------------||
||o-----------------|-----------------o||------------||
||------------------|------------------||------------||


   Chorus
                       1.                     2.
                                To Coda
    B5/E     C5/F       B5/E     E5           B5/E
   4/4                                       2/4
    Gtr I
    H    +E  E +S  E.   E +H     E +S  E.     H
||--------------------|--------------------||------||
||o-------------------|-------------------o||------||
||--------------------|--------------------||------||
||--4----(4)-5-(5)-5--|-4-(4)----2-(2)-2---||-4----||
||o-2----(2)-3-(3)-3--|-2-(2)----2-(2)-2--o||-2----||
||--4----(4)-5-(5)-5--|-4-(4)----2-(2)-2---||-4----||


   Pre-Verse
                        D.S. al Coda
    N.C.
   4/4
    Gtr I
    E E E E E E E E   E E E E E E E E
||------------------|------------------||
||o-----------------|-----------------o||
||------------------|------------------||
||------------------|------------------||
||o---9-7-9-5-9-4-5-|---9-7-9-5-9-4-5-o||
||--9---------------|-9----------------||
|
|   Gtr II
|   W                 W
||--7---------------|-7----------------||
||o-----------------|-----------------o||
||------------------|------------------||
||------------------|------------------||
||o-----------------|-----------------o||
||------------------|------------------||


                       1.,2.                  3.
    &
    B5/E     C5/F       B5/E     E5            B5/E    D5/A
                                             2/4
    Gtr I
    H    +E  E +S  E.   E +H     E +S  E.  3x  S S S S S S S S
||--------------------|--------------------||-------------------||
||o-------------------|-------------------o||-------------------||
||--------------------|--------------------||-------------------||
||--4----(4)-5-(5)-5--|-4-(4)----2-(2)-2---||--4-4-4-4-7-7-7-7--||
||o-2----(2)-3-(3)-3--|-2-(2)----2-(2)-2--o||--2-2-2-2-5-5-5-5--||
||--4----(4)-5-(5)-5--|-4-(4)----2-(2)-2---||--4-4-4-4-7-7-7-7--||


 Bridge
  C5B5/E                      C5B5/E                D5/A
 4/4
  E E S S S S E S S S S S S   E E S S S S E S S S S S S
|---------------------------|---------------------------|
|---------------------------|---------------------------|
|---------------------------|---------------------------|
|-5-4-x-4-x-x-4-x-x-4-4-x-x-|-5-4-x-4-x-x-4-x-x-4-4-7-7-|
|-3-2-x-2-x-x-2-x-x-2-2-x-x-|-3-2-x-2-x-x-2-x-x-2-2-5-5-|
|-5-4-x-4-x-x-4-x-x-4-4-x-x-|-5-4-x-4-x-x-4-x-x-4-4-7-7-|


  C5B5/E                      C5B5/E
                             3/4
  E E S S S S E S S S S S S   E E S S S S E E
|---------------------------|-----------------||
|---------------------------|-----------------||
|---------------------------|-----------------||
|-5-4-x-4-x-x-4-x-x-4-4-x-x-|-5-4-x-4-x-x-4---||
|-3-2-x-2-x-x-2-x-x-2-2-x-x-|-3-2-x-2-x-x-2---||
|-5-4-x-4-x-x-4-x-x-4-4-x-x-|-5-4-x-4-x-x-4---||


 Interlude
  N.C.
 4/4
  Gtr II
  ~~                                   ~~
  H.      E  a  E    Q.    E  +H       H.      E  a  E    H    H
|-----------------|------------------|-----------------|------------|
|-----------------|-12---------------|-----------------|-12---------|
|-9-------7-(7)s9-|-------10-(10)----|-9-------7-(7)s9-|------------|
|-----------------|------------------|-----------------|------------|
|-----------------|------------------|-----------------|------------|
|-----------------|------------------|-----------------|------------|


  N.C.
  ~~                                   ~~
  H.      E  a  E    Q.    E  +H       H.      E  a  E    Q.    E  +H
|-----------------|------------------|-----------------|------------------|
|-----------------|-12---------------|-----------------|-12---------------|
|-9-------7-(7)s9-|-------10-(10)----|-9-------7-(7)s9-|-------10-(10)----|
|-----------------|------------------|-----------------|------------------|
|-----------------|------------------|-----------------|------------------|
|-----------------|------------------|-----------------|------------------|


  N.C.         Fb5              N.C.
  ~~                  ~~~~~~~~~~~~~
  H.      Q     e  e  H.        H.      E  a  E    Q.    E  +H
|------------|----------------|-----------------|------------------||
|------------|-12-12-12-------|-----------------|-12---------------||
|-9-------7--|-10-10-10-------|-9-------7-(7)s9-|-------10-(10)----||
|------------|----------------|-----------------|------------------||
|------------|----------------|-----------------|------------------||
|------------|----------------|-----------------|------------------||


   Breakdown
    B5F#5E5F#5D5F#5DbD5  B5F#5E5F#5D5F#5DbD5
    Gtr I
    E  E E  E E  E E E   E  E E  E E  E E E  4x
||---------------------|---------------------||
||o--------------------|--------------------o||
||----11-9-11-7-11-6-7-|---11-9-11-7-11-6-7--||
||--9-11-9-11-7-11-6-7-|-9-11-9-11-7-11-6-7--||
||o-9--9-7--9-5--9-4-5-|-9--9-7--9-5--9-4-5-o||
||--9------------------|-9-------------------||


   Bridge
                            1.,2.,3.           4.
    B5           A5          B5F#5E5F#5D5A5    B5F#5E5F#5D5A5  E5
   3/4                                        5/4
    S S S S E. S S S S +S    E  E E  E E E  4x E  E E  E E E E E +S  E.
||-------------------------|----------------||--------------------------||
||o------------------------|---------------o||--------------------------||
||-------------------------|---11-9-11-7----||---11-9-11-7--------------||
||--9-9-9-9-9--9-7-7-7-(7)-|-9-11-9-11-7-7--||-9-11-9-11-7-7---2-(2)-2--||
||o-9-9-9-9-9--9-7-7-7-(7)-|-9--9-7--9-5-7-o||-9--9-7--9-5-7---2-(2)-2--||
||--9-9-9-9-9--9-7-7-7-(7)-|-9-----------7--||-9-----------7---2-(2)-2--||


   Chorus
                       1.                     2.
    B5/E     C5/F       B5/E     E5           B5/E    D5/A
   4/4                                       2/4
    H    +E  E +S  E.   E +H     E +S  E.     S S S S S S S S
||--------------------|--------------------||-----------------||
||o-------------------|-------------------o||-----------------||
||--------------------|--------------------||-----------------||
||--4----(4)-5-(5)-5--|-4-(4)----2-(2)-2---||-4-4-4-4-7-7-7-7-||
||o-2----(2)-3-(3)-3--|-2-(2)----2-(2)-2--o||-2-2-2-2-5-5-5-5-||
||--4----(4)-5-(5)-5--|-4-(4)----2-(2)-2---||-4-4-4-4-7-7-7-7-||


 Outro
  C5B5/E
 4/4
  Gtr I
  E  E +H.               +W
|----------------------|----------------------|
|----------------------|----------------------|
|----------------------|----------------------|
|-5--4-(4)-------------|-(4)------------------|
|-3--2-(2)-------------|-(2)------------------|
|-5--4-(4)-------------|-(4)------------------|
|
| Gtr II
| E  E  E   E E  E E E    E   E E  E E  E E E
|----------------------|----------------------|
|----------------------|----------------------|
|---11--9--11-7-11-6-7-|-----11-9-11-7-11-6-7-|
|-9--------------------|--9-------------------|
|----------------------|----------------------|
|----------------------|----------------------|


  +W                     +H          H
|----------------------|------------------*|
|----------------------|------------------*|
|----------------------|------------------*|
|-(4)------------------|-(4)--------------*|
|-(2)------------------|-(2)--------------*|
|-(4)------------------|-(4)--------------*|
|
|  E   E E  E E  E E E    E   E E  E H
|----------------------|------------------*|
|----------------------|------------------*|
|-----11-9-11-7-11-6-7-|-----11-9-11------*|
|--9-------------------|--9---------------*|
|----------------------|------------------*|
|----------------------|------------------*|




--------------------------------------------------------------------------------


Duration Legend
---------------
W - whole; H - half; Q - quarter; E - 8th; S - 16th; T - 32nd; X - 64th; a - acciaccatura
+ - note tied to previous; . - note dotted; .. - note double dotted
Uncapitalized letters represent notes that are staccato (1/2 duration)
Irregular groupings are notated above the duration line
Duration letters will always appear directly above the note/fret number it represents the
duration for.  Duration letters with no fret number below them represent rests.  Multi-
bar rests are notated in the form Wxn, where n is the number of bars to rest for.  Low
melody durations appear below the staff

Tablature Legend
----------------
 h   - hammer-on
 p   - pull-off
 b   - bend
 pb  - pre-bend
 r   - bend release (if no number after the r, then release immediately)
 /\  - slide into or out of (from/to "nowhere")
 s   - legato slide
 S   - shift slide
 - natural harmonic
[n]  - artificial harmonic
n(n) - tapped harmonic
 ~   - vibrato
 tr  - trill
 T   - tap
 TP  - trem. picking
 PM  - palm muting
\n/  - tremolo bar dip; n = amount to dip
 \n  - tremolo bar down
 n/  - tremolo bar up
/n\  - tremolo bar inverted dip
 =   - hold bend; also acts as connecting device for hammers/pulls
 <> - volume swell (louder/softer)
 x   - on rhythm slash represents muted slash
 o   - on rhythm slash represents single note slash

Misc Legend
-----------
 |  - bar
||  - double bar
||o - repeat start
o|| - repeat end
*|  - double bar (ending)
 :  - bar (freetime)
 $  - Segno
 &  - Coda
Tempo markers -  = BPM(8/16=s8/s16), where s8 = swing 8ths, s16 = swing 16ths

Tap to rate this tab
 
# A B C D E F G H I J K L M N O P Q R S T U V W X Y Z