Song name
# A B C D E F G H I J K L M N O P Q R S T U V W X Y Z

Papa Roach - Lifeline tab

Lifeline (Lead & Rhythm)


Lead
Intro
e|------------------------------------------------------------------------||
B|------------------------------------------------------------------------||
G|------------------------------------------------------------------------||
D|-12-00-12-00-12-0-11-00-11-00-11-0-16*-00-16*-00-16-0-11-00-11-00-11-0--||
A|------------------------------------------------------------------------||
D|------------------------------------------------------------------------||

e|------------------------------------------------------------------------||
B|------------------------------------------------------------------------||
G|------------------------------------------------------------------------||
D|-12-00-12-00-12-0-11-00-11-00-11-0-17-00-17-00-17-0-11-00-11-00-11-0----||
A|------------------------------------------------------------------------||
D|------------------------------------------------------------------------||

e|------------------------------------------------------------------------||
B|------------------------------------------------------------------------||
G|------------------------------------------------------------------------||
D|-12-00-12-00-12-0-11-00-11-00-11-0-16*-00-16*-00-16-0-11-00-11-00-11-0--||
A|------------------------------------------------------------------------||
D|------------------------------------------------------------------------||

e|-----------||
B|-----------||
G|-----------||
D|--9b-------||
A|-----------||
D|-----------||

Verse 1 (with tremolo)
e|-----------------------------------------||
B|-----------------------------------------||
G|---------------------------7--6--4--2----||
D|--7~--5~--2~--7~--7~-------X--X--X--2----||
A|--5~--5~--2~--7~--5~-------5--4--2-------||
D|------5~--2~--7~-------------------------||
                            -no tremolo-

Verse 2 (figure out strumming)
e|-------------------------------------||
B|-------------------------------------||
G|--------9----------7--9--11-12-------||
D|--7--5--X--7--7----X--X--X--X--------||
A|--5--5--7--7--5----5--7--9--10-------||
D|-----5-----7-------------------------||

Chorus (Do Intro)
add this at end
e|-----------------------||
B|-----------------------||
G|---14--12--11--9-------||
D|---X---X---X---X-------||
A|---12--10--9---7-------||
D|-----------------------||

Rpt. Verse 2
Rpt. Chorus 2x
add this at end of 2nd chorus
e|------------------||
B|------------------||
G|--7--6--4--2------||
D|--X--X--X--2------||
A|--5--4--2---------||
D|------------------||

Bridge (with Wah)
e|-------------------------------------------------------||
B|-------------------------------------------------------||
G|-------------------------------------------------------||
D|--4~--4h5--2~--2h4--0~-----15h17p15--14-14h16p14-12~---||
A|-------------------------------------------------------||
D|-------------------------------------------------------||

e|-------------------------------------------------------||
B|-------------------------------------------------------||
G|-------------------------------------------------------||
D|--4~--4h5--2~--2h4--0~-----15h17p15--14-14h16p14-19---||
A|-------------------------------------------------------||
D|-------------------------------------------------------||

Do Intro
-break-
Do Intro until end

End (with Tremolo)
e|---------||
B|---------||
G|---------||
D|---7~----||
A|---5~----||
D|---------||

---------------------------------------------------------------------------

Rhythm
Intro (figure out strumming)
e|-----------------------||
B|-----------------------||
G|-----------------------||
D|--7--5--2-7--7---------||
A|--5--5--2-7--5---------||
D|-----5--2-7------------||

Verse 1
e|---------------------------------------------------------||
B|---------------------------------------------------------||
G|-------------8-7------------------------------7-6-4--2---||
D|--7~--77-7~--X-X--5~-55-5~--5-4-2~--2s7-7--7--X-X-X--2---||
A|--5~--55-5~--5-5--5~-55-5~--5-4-2~--2s7-7--5--5-4-2------||
D|------------------5~-55-5~--5-4-2~--2s7-7----------------||

Verse 2 (figure out strumming)
e|--------------------------------||
B|--------------------------------||
G|-----------------7--9--11-12----||
D|--7--5--2--7--7--X--X--X--X-----||
A|--5--5--2--7--5--5--7--9--10----||
D|-----5--2--7--------------------||

Chorus (figure out srumming)
e|-----------------------------------||
B|-----------------------------------||
G|--------------------14--12--11-9---||
D|---7--7-5--2--7--7--X---X---X--X---||
A|---5--7-5--2--7--5--12--10--9--7---||
D|------7-5--2--7--------------------||

Rpt. Verse 2
Rpt. Chorus 2x
add this at end of 2nd chorus
e|------------------||
B|------------------||
G|--7--6--4--2------||
D|--X--X--X--2------||
A|--5--4--2---------||
D|------------------||

Bridge
e|--------------------------------------------||
B|--------------------------------------------||
G|---------------11s-12s-11-9-11s-12s-11-14---||
D|--4--7-7--9-5--X---X---X--X-X---X---X--X----|| 2x
A|--2--5-7--9-5--9s--10s-9--7-9s--10s-9--12---||
D|-------7--9-5-------------------------------||

Break
e|-----------------------||
B|-----------------------||
G|-----------------------||
D|--7~--5~--2~--7~--7~---||
A|--5~--5~--2~--7~--5~---||
D|------5~--2~--7~-------||

Rpt Chorus

Chorus 2 (figure out strumming)
e|---------------------||
B|---------------------||
G|---------------------||
D|--7--4--2--4--5--7---||
A|--5--2--2--4--5--5---||
D|--------2--4--5------||

Rpt. Break

End
e|--------||
B|--------||
G|--------||
D|---0~---||
A|---0~---||
D|---0~---||
Tap to rate this tab
 
# A B C D E F G H I J K L M N O P Q R S T U V W X Y Z