Song name
# A B C D E F G H I J K L M N O P Q R S T U V W X Y Z

Papa Roach - Lifeline tab

-------------------------------------------------------------------------------
			     Lifeline - Papa Roach
-------------------------------------------------------------------------------
Tabbed by: musicislife1408
Email:

Tuning: Drop D	  Sorry no lead guitar yet.
	 Intro: Repeat each chord and section as many times as need.
e|---------------------------------------------------------------------------|
B|---------------------------------------------------------------------------|
G|---7-------------------------7---------------------------------------------|
D|---7------5-----2-----7------7---------------------------------------------|
A|---5------5-----2-----7------5---------------------------------------------|
E|----------5-----2-----7----------------------------------------------------|
				     Verse
e|---------------------------------------------------------------------------|
B|---------------------------------------------------------------------------|
G|---7-----12----------------------7-----7---6---4---2-----------------------|
D|---5-----12----5-----2-----7-----7-----x---x---x---x-----------------------|
A|---5-----10----5-----2-----7-----5-----5---4---2---0-----------------------|
E|---------------5-----2-----7-----------------------------------------------|
					Verse 1 Continued
e|---------------------------------------------------------------------------|
B|---------------------------------------------------------------------------|
G|---7---------------------7----7---9---11--14-------------------------------|
D|---7----5-----2-----7----5----x---x---x----x-------------------------------|
A|---5----5-----2-----7----5----5---7---9---12-------------------------------|
E|--------5-----2-----7------------------------------------------------------|
					Chorus Repeat this for second and third chorus.
e|---------------------------------------------------------------------------|
B|---------------------------------------------------------------------------|
G|---7------------------------7----------------------------------------------|
D|---7---7----5----2----7-----5----------------------------------------------|
A|---5---7----5----2----7-----5----------------------------------------------|
E|-------7----5----2----7----------------------------------------------------|
					Verse 2
e|----------------------------------------------------------------------------|
B|----------------------------------------------------------------------------|
G|---7----------------------7----7---9---11--14-------------------------------|
D|---7-----5----2-----7-----7----x---x---x----x-------------------------------|
A|---5-----5----2-----7-----5----5---7---9---12-------------------------------|
E|---------5----2-----7-------------------------------------------------------|
					Bridge
e|-----------------------------------------------------------------------------|
B|-----------------------------------------------------------------------------|
G|---4---7---2-------------------------4---7---2-------------------------------|
D|---x---x---x----5----5p4-2-4h5-0-----x---x---x----5----5p4-2-4h5-7-----------|
A|---2---5---0----5--------------------2---5---0----5--------------------------|
E|----------------5---------------------------------5--------------------------|

| /  slide up
| \  slide down
| h  hammer-on
| p  pull-off
| ~  vibrato
| +  harmonic
| x  Mute note
===============================================================================
Tap to rate this tab
# A B C D E F G H I J K L M N O P Q R S T U V W X Y Z