Song name
# A B C D E F G H I J K L M N O P Q R S T U V W X Y Z

Papa Roach - Had Enough tab

READ THIS!!!!!
this is the vocal part on guitar, i am submitting it so a friend can learn it. If it 
helps you too then thats great :)





  Q    E  E  E  E  E  E     Q    H        E  E
-------------------------|----------------------|
-------------------------|----------------------|
-------7--4--7--4--7--4--|--7----4--------------|
-------------------------|-------------------2--|
-------------------------|----------------------|
-------------------------|----------------------|


  E  Q    Q.     Q       Q    E  Q    Q.
----------------------|----------------------|
----------------------|----------------------|
-----4----2-----------|-------4--2----4------|
--2-------------------|--2-------------------|
----------------------|----------------------|
----------------------|----------------------|


  E  E  E  E  E  E  E  E     Q    H        E  E
--------------------------|----------------------|
--------------------------|----------------------|
-----7--7--4--7--4--7--4--|--7----4--------------|
--------------------------|-------------------2--|
--------------------------|----------------------|
--------------------------|----------------------|


  E  Q    Q    Q    E     E  Q    Q    Q.
-----------------------|----------------------|
-----------------------|----------------------|
-----4----2----0-------|--7--5----4----2------|
--2-----------------2--|----------------------|
-----------------------|----------------------|
-----------------------|----------------------|


  Q    E  E  E  E  E  E     Q    H        E  E
-------------------------|----------------------|
-------------------------|----------------------|
-------7--4--7--4--7--4--|--7----9--------------|
-------------------------|----------------------|
-------------------------|----------------------|
-------------------------|----------------------|


  E  Q    Q    Q    E     Q    E  E  H
-----------------------|----------------------|
-----------------------|----------------------|
--7--5----4----2----2--|--2----0--2--4--------|
-----------------------|----------------------|
-----------------------|----------------------|
-----------------------|----------------------|


  E  E  E  E  E  E  E  E     Q    H        E  E
--------------------------|----------------------|
--------------------------|----------------------|
-----7--7--4--7--4--7--4--|--7----4-----------2--|
--------------------------|----------------------|
--------------------------|----------------------|
--------------------------|----------------------|


  Q    E  Q    Q    E     E  Q    E  H
-----------------------|----------------------|
-----------------------|----------------------|
--7----5--4----2----0--|--2--2----2--4--------|
-----------------------|----------------------|
-----------------------|----------------------|
-----------------------|----------------------|


  H.           E  E     Q    E  Q.     E  E
---------------------|-----------------------|
------------------8--|--L----7---------------|
---------------7-----|----------7------9--7--|
---------------------|-----------------------|
---------------------|-----------------------|
---------------------|-----------------------|


  H        E  E  E  E     E  Q    Q    Q    E
-----------------------|-----------------------|
--------------------8--|--L--7-----------------|
--L--------L--7--7-----|----------7----9----7--|
-----------------------|-----------------------|
-----------------------|-----------------------|
-----------------------|-----------------------|


  Q    Q    E  Q    E     E  E  E  Q    Q    E
-----------------------|------------------------|
-----------------------|------------------------|
--4---------0--0----7--|--L--5--5--4----2----0--|
-----------------------|------------------------|
-----------------------|------------------------|
-----------------------|------------------------|


  E  Q    Q    Q    E     Q    E  Q    Q.
-----------------------|----------------------|
-----------------------|----------------------|
--7--5----4----5----7--|--L----5--4----0------|
-----------------------|----------------------|
-----------------------|----------------------|
-----------------------|----------------------|


  Q    E  E  E  E  E  E     Q    H        E  E
-------------------------|----------------------|
-------------------------|----------------------|
-------7--4--7--4--7--4--|--7----4--------------|
-------------------------|-------------------2--|
-------------------------|----------------------|
-------------------------|----------------------|


  Q    E  Q    Q    E     Q    E  E  Q.     E
-----------------------|-----------------------|
-----------------------|-----------------------|
-------4--2----0-------|-------4--2--4---------|
--2-----------------2--|--2--------------------|
-----------------------|-----------------------|
-----------------------|-----------------------|


  E  E  E  E  Q    E  E     Q    H        E  E
-------------------------|----------------------|
-------------------------|----------------------|
-----7--7--4--7----7--4--|--7----4--------------|
-------------------------|-------------------2--|
-------------------------|----------------------|
-------------------------|----------------------|


  E  Q    Q    Q    E     E  Q    E  H
-----------------------|----------------------|
-----------------------|----------------------|
-----4----2----0-------|--7--5----4--2--------|
--2-----------------2--|----------------------|
-----------------------|----------------------|
-----------------------|----------------------|


  Q    E  E  E  E  E  E     Q    H        E  E
-------------------------|----------------------|
-------------------------|----------------------|
-------7--4--7--4--7--4--|--7----9-----------0--|
-------------------------|----------------------|
-------------------------|----------------------|
-------------------------|----------------------|


  Q    E  Q    Q    E     E  Q    E  Q.     E
-----------------------|-----------------------|
-----------------------|-----------------------|
--7----5--4----2-------|--2--2----2--4---------|
-----------------------|-----------------------|
-----------------------|-----------------------|
-----------------------|-----------------------|


  E  E  E  E  E  E  E  E     Q    H        E  E
--------------------------|----------------------|
--------------------------|----------------------|
-----7--7--4--7--4--7--4--|--7----4-----------0--|
--------------------------|----------------------|
--------------------------|----------------------|
--------------------------|----------------------|


  Q    E  Q    Q    E     E  Q    E  Q.     E
-----------------------|-----------------------|
-----------------------|-----------------------|
--7----5--4----2----0--|--2--2----2--4---------|
-----------------------|-----------------------|
-----------------------|-----------------------|
-----------------------|-----------------------|


  H.           E  E     Q    E  Q.     E  E
---------------------|-----------------------|
------------------8--|--L----7---------------|
---------------7-----|----------7------9--7--|
---------------------|-----------------------|
---------------------|-----------------------|
---------------------|-----------------------|


  H        E  E  E  E     E  Q    Q    Q    E
-----------------------|-----------------------|
--------------------8--|--L--7-----------------|
--L--------L--7--7-----|----------7----9----7--|
-----------------------|-----------------------|
-----------------------|-----------------------|
-----------------------|-----------------------|


  Q    Q    E  Q    E     E  E  E  Q    Q    E
-----------------------|------------------------|
-----------------------|------------------------|
--4---------0--0----7--|--L--5--5--4----2----0--|
-----------------------|------------------------|
-----------------------|------------------------|
-----------------------|------------------------|


  E  Q    Q    Q    E     Q    E  Q    Q.
-----------------------|----------------------|
-----------------------|----------------------|
--7--5----4----5----7--|--L----5--4----0------|
-----------------------|----------------------|
-----------------------|----------------------|
-----------------------|----------------------|


  H.           E  E     Q    E  Q.      E  E
---------------------|------------------------|
------------------8--|--L----5--8------10--8--|
---------------7-----|------------------------|
---------------------|------------------------|
---------------------|------------------------|
---------------------|------------------------|


  H        E  E  E   E     E   Q    Q     Q    E
------------------------|-------------------------|
--L--------L--------12--|--L--10----8----10----8--|
--------------7--7------|-------------------------|
------------------------|-------------------------|
------------------------|-------------------------|
------------------------|-------------------------|


  Q    Q    E  Q     E     E   E   E  Q    Q    E
------------------------|--------------------------|
--5---------3--3----12--|--L--10--10--8----5----3--|
------------------------|--------------------------|
------------------------|--------------------------|
------------------------|--------------------------|
------------------------|--------------------------|


   E   Q    Q     Q     E     Q     E  Q     E   E  E
---------------------------|---------------------------|
--12--10----8----10----12--|--L----10--8----10--10--L--|
---------------------------|---------------------------|
---------------------------|---------------------------|
---------------------------|---------------------------|
---------------------------|---------------------------|


                                  H        E  Q    E
-------|-------|-------|-------|----------------------|
-------|-------|-------|-------|----------------------|
-------|-------|-------|-------|--------------4----0--|
-------|-------|-------|-------|----------------------|
-------|-------|-------|-------|----------------------|
-------|-------|-------|-------|----------------------|


  H        Q    E  E     H        Q    E  E
----------------------|----------------------|
----------------------|----------------------|
--L----------------2--|--L-------------0--4--|
----------------2-----|----------------------|
----------------------|----------------------|
----------------------|----------------------|


  E  Q    Q    Q.        H        E  Q    E
----------------------|----------------------|
----------------------|----------------------|
--L--2----0----2------|--------------4----0--|
----------------------|----------------------|
----------------------|----------------------|
----------------------|----------------------|


  H        Q    E  E     H        Q    E  E
----------------------|----------------------|
----------------------|----------------------|
--L----------------2--|--L-------------0--4--|
----------------2-----|----------------------|
----------------------|----------------------|
----------------------|----------------------|


  E  Q    Q    Q.
----------------------|-------|-------|
----------------------|-------|-------|
--L--2----0----2------|-------|-------|
----------------------|-------|-------|
----------------------|-------|-------|
----------------------|-------|-------|


  Q    E  E  E  E  E  E     Q     E   Q.     Q
-------------------------|------------------------|
-------8--5--8--5--8--5--|--8----10--10------8----|
-------------------------|------------------------|
-------------------------|------------------------|
-------------------------|------------------------|
-------------------------|------------------------|


                  E  E   E   E  E  E  E  E
-------|-------|----------------------------|
-------|-------|-----5--12--10--8--8--8--5--|
-------|-------|----------------------------|
-------|-------|----------------------------|
-------|-------|----------------------------|
-------|-------|----------------------------|


  Q     E   Q.     Q       H.           E  E
------------------------|---------------------|
--8----10--10------8----|------------------8--|
------------------------|---------------7-----|
------------------------|---------------------|
------------------------|---------------------|
------------------------|---------------------|


  Q    E  Q.     E  E     H        E  E  E  E
-----------------------|-----------------------|
--L----7---------------|--------------------8--|
----------7------9--7--|--L--------L--7--7-----|
-----------------------|-----------------------|
-----------------------|-----------------------|
-----------------------|-----------------------|


  E  Q    Q    Q    E     Q    Q    E  Q    E
-----------------------|-----------------------|
--L--7-----------------|-----------------------|
----------7----9----7--|--4---------0--0----7--|
-----------------------|-----------------------|
-----------------------|-----------------------|
-----------------------|-----------------------|


  E  E  E  Q    Q    E     E  Q    Q    Q    E
------------------------|-----------------------|
------------------------|-----------------------|
--L--5--5--4----2----0--|--7--5----4----5----7--|
------------------------|-----------------------|
------------------------|-----------------------|
------------------------|-----------------------|


  Q    E  Q    Q.        H.           E  E
----------------------|---------------------|
----------------------|------------------8--|
--L----5--4----0------|---------------7-----|
----------------------|---------------------|
----------------------|---------------------|
----------------------|---------------------|


  Q    E  Q.      E  E     H        E  E  E   E
------------------------|------------------------|
--L----5--8------10--8--|--L--------L--------12--|
------------------------|--------------7--7------|
------------------------|------------------------|
------------------------|------------------------|
------------------------|------------------------|


  E   Q    Q     Q    E     Q    Q    E  Q     E
-------------------------|------------------------|
--L--10----8----10----8--|--5---------3--3----12--|
-------------------------|------------------------|
-------------------------|------------------------|
-------------------------|------------------------|
-------------------------|------------------------|


  E   E   E  Q    Q    E      E   Q    Q     Q     E
--------------------------|---------------------------|
--L--10--10--8----5----3--|--12--10----8----10----12--|
--------------------------|---------------------------|
--------------------------|---------------------------|
--------------------------|---------------------------|
--------------------------|---------------------------|


  Q     E  Q     E   E  E     H.           E  E
---------------------------|---------------------|
--L----10--8----10--10--L--|------------------8--|
---------------------------|---------------------|
---------------------------|---------------------|
---------------------------|---------------------|
---------------------------|---------------------|


  Q    E  Q.     E  E     H.           E  E
-----------------------|---------------------|
--L----7---------------|------------------8--|
----------7------9--7--|--L------------------|
-----------------------|---------------------|
-----------------------|---------------------|
-----------------------|---------------------|


  Q    E  Q.     E  E     H.           E  E
-----------------------|---------------------|
--L----7---------------|------------------8--|
----------7------9--7--|--L------------------|
-----------------------|---------------------|
-----------------------|---------------------|
-----------------------|---------------------|


  Q    E  Q.     E  E     H.           E  E
-----------------------|---------------------|-----|
--L----7---------------|---------------------|-----|
----------7------9--7--|--L------------------|-----|
-----------------------|---------------------|-----|
-----------------------|---------------------|-----|
-----------------------|---------------------|-----|
Tap to rate this tab
 
# A B C D E F G H I J K L M N O P Q R S T U V W X Y Z