Song name
# A B C D E F G H I J K L M N O P Q R S T U V W X Y Z

Paramore - Loves Not A Competition But Im Winning tab

This song is originally by Kaiser Chiefs.

This tab is the intro and the riff throughout the song and can be played in the Kaiser 
original or the Paramore cover.
enjoy. x

e|-15--15----------10--10---------------|
B|---------13--13-----------8--8--8-8-8-|
G|--------------------------------------|
D|--------------------------------------|
A|--------------------------------------|
E|--------------------------------------|

e|-15--15----------10--10-------------------|
B|---------13--13----------13--13--13-13-13-|
G|------------------------------------------|
D|------------------------------------------|
A|------------------------------------------|
E|------------------------------------------|


Tab by Stella.
Tap to rate this tab
# A B C D E F G H I J K L M N O P Q R S T U V W X Y Z