Paramore - The Only Exception tab

-----------------------------
The Only Exception ~ Paramore
-----------------------------
Tabbed By: Russcool
(I know, pretty lame name)

Part: SOLO (2:34)

Tempo: 72

Timing: 6/8

Tuning: Standard



SOLO

E|-----------------|-----------------|-----------------|-----------------|
B|---9-----7-------|-------7---------|---9-----7-------|-----------------|
G|-----------------|---3-4-----------|-----------------|---3-4-----------|
D|-----------------|-----------------|-----------------|-------4---------|
A|-----------------|-----------------|-----------------|-----------------|
E|-----------------|-----------------|-----------------|-----------------|
     1 + 2 + 3 +       1 + 2 + 3 +       1 + 2 + 3 +       1 + 2 + 3 +

E|-----------------|-----------------|-----------------|-----------------|
B|---9-----7-------|-------7---------|---9-----7-------|-----------------|
G|-----------------|---3-4-----------|-----------------|---3-4-----------|
D|-----------------|-----------------|-----------------|-------4---------|
A|-----------------|-----------------|-----------------|-----------------|
E|-----------------|-----------------|-----------------|-----------------|
     1 + 2 + 3 +       1 + 2 + 3 +       1 + 2 + 3 +       1 + 2 + 3 +



Everything Else Is:

E|---2---2-2-2-2-2---2-2-2-2---|---2---2-2-2-2-2---2-2-2-2---|---2---2-2-2-2-2---2-2-2-2---|
B|---4---4-4-4-4-4---4-4-4-4---|---4---4-4-4-4-4---4-4-4-4---|---2---2-2-2-2-2---2-2-2-2---|
G|---4---4-4-4-4-4---4-4-4-4---|---4---4-4-4-4-4---4-4-4-4---|---3---3-3-3-3-3---3-3-3-3---|
D|---4---4-4-4-4-4---4-4-4-4---|---4---4-4-4-4-4---4-4-4-4---|---4---4-4-4-4-4---4-4-4-4---|
A|---2---2-2-2-2-2---2-2-2-2---|---2---2-2-2-2-2---2-2-2-2---|---4---4-4-4-4-4---4-4-4-4---|
E|-----------------------------|-----------------------------|---2---2-2-2-2-2---2-2-2-2---|
     1   +   2   +   3   +         1   +   2   +   3   +         1   +   2   +   3   + 

E|---0---0-0-0-0-0---0-0-0-0---|
B|---0---0-0-0-0-0---0-0-0-0---|
G|---1---1-1-1-1-1---1-1-1-1---|
D|---2---2-2-2-2-2---2-2-2-2---|
A|---2---2-2-2-2-2---2-2-2-2---|
E|---0---0-0-0-0-0---0-0-0-0---|
     1   +   2   +   3   +





That's pretty much it.
OK, enjoy.



Tap to rate this tab
 
# A B C D E F G H I J K L M N O P Q R S T U V W X Y Z