Song name
# A B C D E F G H I J K L M N O P Q R S T U V W X Y Z

Paramore - Renegade tab

## Paramore - "Renegade" Acoustic Cover Tabs ##
## Tabbed by EpicJojo

Tuning: Drop C# (C# / G# / C# / F# / A# / D#)

Intro & Verse (Rhythm):
D#|---------------------|
A#|---------------------|
F#|---11----9-----7-----|  2x
C#|---9-----9-----7-----|
G#|---9-----7-----5-----|
C#|---9-----------------|

D#|---------------------|
A#|---------------------|
F#|---7-----9-----------|
C#|---5-----7-----------|
G#|---5-----7-----------|
C#|---5-----7-----------|

Intro & Verse (Lead):
D#|---------------------|
A#|---------------------|
F#|---4-----9-----7-----|  2x
C#|---x-----x-----x-----|
G#|---2-----7-----5-----|
C#|---------------------|

D#|---------------------|
A#|---------------------|
F#|---7-----9-----------|
C#|---x-----x-----------|
G#|---5-----7-----------|
C#|---------------------|

Pre-Chorus after 2nd verse (Rhythm):
D#|---------------------------|
A#|---------------------------|
F#|---------------------------|
C#|---12----5-----7-----14----|
G#|---12----5-----5-----12----|
C#|---12----5-----4-----11----|

Chorus (Rhythm):
D#|---------------------|
A#|---------------------|
F#|---11----11----7-----|
C#|---9-----0-----5-----|
G#|---9-----0-----5-----|
C#|---9-----0-----5-----|

D#|---------------------------|
A#|---------------------------|
F#|---11----9-----------7-----|
C#|---9-----7-----0-----5-----|
G#|---9-----7-----0-----5-----|
C#|---9-----7-----0-----5-----|

Chorus (Lead):
D#|-------------------------------10-10-9-9------------------------------------------------------|
A#|-----------------------------------------12-10----------------------------------10-10---------|
F#|----------------9-9-9-11-11-11-----------------11----------------9-9-9-11-11-11-------11-11---|
C#|-9-9-9-12-12-12-----------------------------------9-9-9-12-12-12----------------------------9-|
G#|----------------------------------------------------------------------------------------------|
C#|----------------------------------------------------------------------------------------------|

Bridge (Rhythm):
D#|---------------------|
A#|---------------------|
F#|---11----9-----------|
C#|---9-----7-----0-----|
G#|---9-----7-----0-----|
C#|---9-----7-----0-----|

Bridge (Lead):
D#|---------------------|
A#|---------------------|
F#|---11----14----7-----|
C#|---x-----x-----x-----|
G#|---9-----12----5-----|
C#|---------------------|
Tap to rate this tab
 
# A B C D E F G H I J K L M N O P Q R S T U V W X Y Z