Song name
# A B C D E F G H I J K L M N O P Q R S T U V W X Y Z

Paramore - When It Rains tab

====================================================================================
                When it rains - Paramore - Album: Riot!
====================================================================================
Tabbed by: Shin57
email: shinando57@gmail.com

This is my first tab ever and I decided to upload the acoustic version of this song
that is one of my favorites from Paramore cause it sounds really great on the 
acoustic guitar and is quite enjoyable to play. Let me know what you guys think.

Tuning: Standard

====================================================================================

 Intro                 ________________________
                      /          2x            \
e|---0------0---------0----0----0----0----0----0----0--------------------|
B|---0------0---------0----0----0----0----0----0----0--------------------|
G|---6------6---------2----6----9----2----4----6----1--------------------|
D|---6------6---------2----6----9----2----4----6----2--------------------|
A|---4------4---------0----4----7----0----2----4----2--------------------|
E|---X------X---------X----X----X----X----X----X----0--------------------|
                      \___________2x___________/                    

** To make the INTRO and CHORUS of the song much easier to play, shape the 
chord X02200 with your PINKY on the G string (2nd fret) and the RING FINGER on the 
D string (2nd fret). By doing this way, to play the next chords you just slide your 
hand up to the next position (in this case, to X46600) and add the index finger on 
the tonic note (in the same case above, the 4th fret A string). 

** Remember that in these cases you always have to mute the E string 
(preferably with your spare middle finger) to get the correct sound of the 
chord.

====================================================================================
 
 Verse 1 - Part 1

e|-------0---------------------0-------------0-------|
B|-------0---------------------0-------------0-------|
G|-------6---------------------2-------------1-------|
D|-------6---------------------2-------------2-------|
A|-------4---------------------0-------------2-------|
E|-------X---------------------X-------------0-------|

 When it rains on this side of town it touches

====================================================================================
 
 Verse 1 - Part 2
  
e|-------0---------------------0---------------0-------|
B|-------0---------------------0---------------0-------|
G|-------6---------------------2---------------1-------|
D|-------6---------------------2---------------2-------|
A|-------4---------------------0---------------2-------|
E|-------X---------------------X---------------0-------|

    Everything    Just say it again and mean it

====================================================================================
 
 Pre Chorus 1 - Part 1

e|---------------0---------------------------------------------------0-------|
B|---------------0---------------------------------------------------0-------|
G|---------------2---------------------------------------------------1-------|
D|---------------4---------------------------------------------------2-------|
A|---------------4---------------------------------------------------2-------|
E|---------------X---------------------------------------------------0-------|

 We don't miss a thing  You made yourself a bed at the bottom of the blackest 
hole 

====================================================================================
 
 Pre Chorus 1 - Part 2

e|------0------------------------------------------0----------------------0----|
B|------0------------------------------------------0----------------------0----|
G|------2------------------------------------------1----------------------3----|
D|------4------------------------------------------2----------------------3----|
A|------4------------------------------------------2----------------------2----|
E|------X------------------------------------------0----------------------X----|

 And convinced yourself that is not the reason you don't see the sun anymore

====================================================================================

 Chorus 1 - Part 1

e|---0----0---------0-----------0------0----0---------------|
B|---0----0---------0-----------0------0----0---------------|
G|---2----6---------9-----------2------4----6---------------|
D|---2----6---------9-----------2------4----6---------------|
A|---0----4---------7-----------0------2----4---------------|
E|---X----X---------X-----------X------X----X---------------|

     Oh oh how could you do it? Oh I - I never saw it coming 

====================================================================================
 
 Chorus 1 - Part 2

e|---0----0---------0-----------0--------------0---------0----------0-------0----|
B|---0----0---------0-----------0--------------0---------0----------0-------0----|
G|---2----6---------9-----------2--------------4---------6----------1-------6----|
D|---2----6---------9-----------2--------------4---------6----------2-------6----|
A|---0----4---------7-----------0--------------2---------4----------2-------4----|
E|---X----X---------X-----------X--------------X---------X----------0-------X----|

     Oh oh I need an ending  So why can't you stay long enough to explain

====================================================================================
 
 Verse 2 - Part 1

e|-----------0----------------0-------------0-------|
B|-----------0----------------0-------------0-------|
G|-----------6----------------2-------------1-------|
D|-----------6----------------2-------------2-------|
A|-----------4----------------0-------------2-------|
E|-----------X----------------X-------------0-------|

 And when it rains you always find an escape

====================================================================================

 Verse 2 - Part 2

e|-------------0-------------------0----------------0-------|
B|-------------0-------------------0----------------0-------|
G|-------------6-------------------2----------------1-------|
D|-------------6-------------------2----------------2-------|
A|-------------4-------------------0----------------2-------|
E|-------------X-------------------X----------------0-------|

 Just running away from all of the ones who love you

====================================================================================
 
 Pre Chorus 2 - Part 1
 
e|---------0---------------------------------------------------0------------|
B|---------0---------------------------------------------------0------------|
G|---------2---------------------------------------------------1------------|
D|---------4---------------------------------------------------2------------|
A|---------4---------------------------------------------------2------------|
E|---------X---------------------------------------------------0------------|

 From everything  You made yourself a bed at the bottom of the blackest hole
 
====================================================================================
 
 Pre Chorus 2 - Part 2
 
e|------------0-----------------------------------------------0-----------------0---|
B|------------0-----------------------------------------------0-----------------0---|
G|------------2-----------------------------------------------1-----------------4---|
D|------------4-----------------------------------------------2-----------------4---|
A|------------4-----------------------------------------------2-----------------2---|
E|------------X-----------------------------------------------0-----------------X---|

 And you'll sleep till May and you'll say that you don't wanna see the sun anymore

====================================================================================
 
 Chorus 2 - Part 1

e|---0----0---------0-----------0------0----0---------------|
B|---0----0---------0-----------0------0----0---------------|
G|---2----6---------9-----------2------4----6---------------|
D|---2----6---------9-----------2------4----6---------------|
A|---0----4---------7-----------0------2----4---------------|
E|---X----X---------X-----------X------X----X---------------|

     Oh oh how could you do it? Oh I - I never saw it coming 

====================================================================================

 Chorus 2 - Part 2

e|---0----0---------0-----------0--------------0---------0---------------|
B|---0----0---------0-----------0--------------0---------0---------------|
G|---2----6---------9-----------2--------------4---------6---------------|
D|---2----6---------9-----------2--------------4---------6---------------|
A|---0----4---------7-----------0--------------2---------4---------------|
E|---X----X---------X-----------X--------------X---------X---------------|

     Oh oh I need an ending  So why can’t you stay long enough to
 
====================================================================================
 
 Bridge - Part 1

e|---0------0------0------0------0------0------0------0----------|
B|---0------0------0------0------0------0------0------0----------|
G|---2------1------2------2------2------1------2------2----------|
D|---4------2------2------2------4------2------2------2----------|
A|---4------2------0------X------4------2------0------X----------|
E|---X------0------X------4------X------0------X------4----------|

   Explain  your...self,         take   my     time

** This part is easier if you play the chord X02200 with your index finger and middle
finger, because the next chord is 4X2200 and you'll use your pinky to hit the E string
on the 4th fret **

====================================================================================
 
 Bridge - Part 2

e|---0---------------------0------------------0----------------------------------0--|
B|---0---------------------0------------------0----------------------------------0--|
G|---2---------------------1------------------2----------------------------------2--|
D|---4---------------------2------------------2----------------------------------2--|
A|---4---------------------2------------------0----------------------------------X--|
E|---X---------------------0------------------X----------------------------------4--|

     Take these chances to turn it around and take these chances and make it somehow

====================================================================================
 
 Bridge - Part 3 

e|---0---------------------0--------------------0-------------------|
B|---0---------------------0--------------------3-------------------|
G|---2---------------------1--------------------2-------------------|
D|---4---------------------2--------------------0-------------------|
A|---4---------------------2--------------------X-------------------|
E|---X---------------------0--------------------X-------------------|

     Take these chances to turn it around, just turn it around

====================================================================================
 
 Chorus 3 - Part 1 [x3]

e|---0----0---------0-----------0------0----0---------------|
B|---0----0---------0-----------0------0----0---------------|
G|---2----6---------9-----------2------4----6---------------|
D|---2----6---------9-----------2------4----6---------------|
A|---0----4---------7-----------0------2----4---------------|
E|---X----X---------X-----------X------X----X---------------|

     Oh oh how could you do it? Oh I - I never saw it coming 

====================================================================================
 
 Chorus 3 - Part 2

e|---0----0---------0-----------0--------------0---------0---------------|
B|---0----0---------0-----------0--------------0---------0---------------|
G|---2----6---------9-----------2--------------4---------6---------------|
D|---2----6---------9-----------2--------------4---------6---------------|
A|---0----4---------7-----------0--------------2---------4---------------|
E|---X----X---------X-----------X--------------X---------X---------------|

     Oh oh I need an ending  So why can’t you stay long enough to expl...

====================================================================================
 
 Out 

e|----0-------------------------0-----------0-------------------|
B|----0-------------------------0-----------0-------------------|
G|----2-------------------------1-----------6-------------------|
D|----4-------------------------2-----------7-------------------|
A|----4-------------------------2-----------7-------------------|
E|----X-------------------------0-----------5-------------------|

 ...plain   You could take your time, take my time

====================================================================================
Tap to rate this tab
# A B C D E F G H I J K L M N O P Q R S T U V W X Y Z