Song name
# A B C D E F G H I J K L M N O P Q R S T U V W X Y Z

Passenger - Let Her Go tab

Hi im Christian from "Christians How To Plays"

These Chords/Tabs are 100% correct. 

To look how i play the strumming parts please visit my video lesson of the Song: 

http://www.youtube.com/watch?v=66tkAufIDjk


Please Comment, Like and share my Videos.

Now, have fun with the Song: 


Artist: Passenger
Song: Let Her Go
Album: All the Little Lights

Capo on the 7th fret



Intro (Simple Version) : 

        G                   F          
E||-----0---------------|---------------------------|
B||--3-----3--1---------|--1---------1---------1----|
G||--------------0h--2--|--2---------2---------2----|
D||---------------------|--3----3----3----3----3----|
A||---------------------|---------------------------|
E||---------------------|---------------------------|

  G                    Am            G       
-----0---------------|------------0-------|-----0---------------|
--3-----3--1---------|--1---------1--3----|--3-----3--1---------|
--------------0h--2--|--2-----------------|--------------0h--2--|
---------------------|--------------------|---------------------|
---------------------|--0----0----0-------|---------------------|
---------------------|---------------3----|---------------------|


  F                    G     Am 
------------3p--0---------|--0-------------------------||
--1----------------1h--3--|--1---------1---------1-----||
--2-----------------------|--2---------2---------2----*||
--3----3------------------|---------------------------*||
--------------------------|--0----0---------0----------||
--------------------------|----------------------------||



Quiet Chorus: (Picking Notes)

  F                C                 G
E||------------------------|------------------------|------------------------|
B||-------1-------------1--|-------1-------------1--|-------0-------------0--|
G||---------------2--------|---------------0--------|---------------0--------|
D||------------------3-----|------------------2-----|------------------0-----|
A||------------------------|--3---------3-----------|------------------------|
E||--1---------1-----------|------------------------|--3---------3-----------|

 Am               F                 C
------------------------|------------------------|------------------------|
-------1-------------1--|-------1-------------1--|-------1-------------1--|
---------------2--------|---------------2--------|---------------0--------|
------------------2-----|------------------3-----|------------------2-----|
--0---------0-----------|------------------------|--3---------3-----------|
------------------------|--1---------1-----------|------------------------|

 G
------------------------|------------------------||
-------0-------------0--|-------0-------------0--||
---------------0--------|---------------0--------||
------------------0-----|------------------0-----||
------------------------|------------------------||
--3---------3-----------|--3---------3-----------||



Chorus: (Lyrics and Chords)

                       F                       C
Well you only need the light when it s burning low
              G                       Am
Only miss the sun when it s starts to snow
               F                      C       G
Only know your lover when you let her go
                      F                        C
Only know you ve been high when you re feeling low
              G                        Am
Only hate the road when you re missin  home
               F                         C
Only know your lover when you ve let her go
G
  And you let her go


Interlude:

Am   F   G   Em
Am   F   G


Verse: 

Am                            F
Staring at the bottom of your glass
        G                            Em
Hoping one day you will make a dream last
               Am               F          G
The dreams come slow and goes so fast
    Am                          F
You see her when you close your eyes
      G                           Em
Maybe one day you will understand why
               Am           F         G
Everything you touch all it dies



Chorus:

                          F                       C
Because you only need the light when it s burning low
              G                       Am
Only miss the sun when it s starts to snow
               F                      C       G
Only know your lover when you let her go
                      F                        C
Only know you ve been high when you re feeling low
              G                        Am
Only hate the road when you re missin  home
               F                         C     G
Only know your lover when you ve let her go




Verse:

Am                            F
Staring at the ceiling in the dark
         G                     Em
Same old empty feeling in your heart
           Am                 F       G
Love comes slow and it goes so fast
         Am                      F
Well you see her when you fall asleep
                G                  Em
But to never to touch and never to keep
                         Am
Because you loved her to much
                 F          G
And you dive too deep





                          F                       C
Because you only need the light when it s burning low
              G                       Am
Only miss the sun when it s starts to snow
               F                      C       G
Only know your lover when you let her go
                      F                        C
Only know you’ve been high when you re feeling low
              G                        Am
Only hate the road when you re missin  home
               F                         C     G
Only know your lover when you ve let her go


                Am
And you let her go
      F     G
Ooooo ooooo oooooo
                Am
And you let her go
        F     G
Ooooooo ooooo ooooo
                Am         F    G   Em
And you let her go


Am    F    G





                          F                       C
Because you only need the light when it s burning low
              G                       Am
Only miss the sun when it s starts to snow
               F                      C       G
Only know your lover when you let her go
                      F                        C
Only know you ve been high when you re feeling low
              G                        Am
Only hate the road when you re missin  home
               F                         C
Only know your lover when you ve let her go
G
  And you let her go


                          F                       C
Because you only need the light when it s burning low
              G                       Am
Only miss the sun when it s starts to snow
               F                      C       G
Only know your lover when you let her go
                      F                        C
Only know you’ve been high when you re feeling low
              G                        Am
Only hate the road when you re missin  home
               F                         C
Only know your lover when you ve let her go
G                             Am
  And you let her go
Tap to rate this tab
 
# A B C D E F G H I J K L M N O P Q R S T U V W X Y Z