Song name
# A B C D E F G H I J K L M N O P Q R S T U V W X Y Z

Paul Gilbert - Down To Mexico tab

Paul Gilbert


Down to Mexico


(still unsure of the album,lol)

I've finished the rest of the song,it's a little sketchy but I'm sure it will help some 
you out there when it comes to playing it...
DSB
Rage_2k2@hotmail.com (for any questions)

Standard Tuning

intro
G
|--------------------------------------------|
|--------------------------------------------|
|-5^-5^-5^-r-3----5^-5^-5^-r-3-----------3---|
|--------------5---------------5--3--5-*---5-|
|--------------------------------------------|
|--------------------------------------------|

|------------------------------------------------------|
|--------------------------------------3------3----3-3-|
|-5^-5^-5^-r-3----5^-5^-5^-r-3---------3------3----3-3-|
|--------------5---------------5---3h5----3h5---3h5----|
|------------------------------------------------------|
|------------------------------------------------------|

|------------------------------------------|
|------------------------------------------|
|-5^-5^-5^-r3----5^-5^-5^-r-3----------3---|
|-------------5---------------5--3--5----5-|
|------------------------------------------|
|------------------------------------------|

|--------------------------------------------------------------------|
|--------------------------------------------------------------------|
|-------10h12-------10h12-------10h12-------10h12-/15-15-15-12-10-12-|
|-10h12-------10h12-------10h12-------10h12--------------------------|
|--------------------------------------------------------------------|
|--------------------------------------------------------------------|


Verse
Chords (G-F-C-G)
(a) repeat (2)
|----------------------------------------------|
|------------------------------2---------------|
|--------3-----3x-x-5--------0-1---------------|
|-3-5-x-x--5-3-3x-x-5--5-3-5-0-0-5-5-5-r-3-----|
|----------------------------3-----------------|
|------------------------------------------8-5-|
(b)
|-------------------------------------|
|-------------------------------------|
|-------------------------------------|
|-3-3-3-3/5-5-5-5/8-8-8-8/10-10-10-10-|
|-1-1-1-1/3-3-3-3/6-6-6-6/8--8--8--8--|
|-------------------------------------|

then play (a) once and play the intro once
then play (a) twice again then (b) once,then (a)
after that play this
repeat (4)
|-------------------------------------------------------------------------|
|-------------------------------------------------------------------------|
|-------------------------------------------------------------------------|
|-----------------------------5-7----------------------Then theres a Fill-|
|-7-7-7-5---7-7-7-5---7-7-7-5-5-7--7-7-7-5---7-7-7-5----------------------|
|---------7---------7----------------------7---------7--------------------|

then paly intro once
then play (a) twice then (b) then (a) once more (u should get the pattern now,lol)
repeat until outro
|-------------------------------------------------------------------------|
|-------------------------------------------------------------------------|
|---------------------------------3-5-------------------------------------|
|-5-5-5-3---5-5-5-5-3---5-5-5-3---3-5--5-5-5-3---5-5-5-3--Then more fills-|
|---------5-----------5---------5--------------5---------5----------------|
|-------------------------------------------------------------------------|

outro

|-----------------|
|-----------------|
|-----------------|
|-3-(3)--5-(5)----|
|-1-(1)--3-(3)--5-|
|---------------3-|
Thats it, tad bit vague but it works,i havnt started working on the fills and solos etc. 
YET,but I intend to.as soon as I get those down they'll be here!!!!
DSB
Tap to rate this tab
 
# A B C D E F G H I J K L M N O P Q R S T U V W X Y Z