Song name
# A B C D E F G H I J K L M N O P Q R S T U V W X Y Z

Pearl Jam - Just Breathe tab

OK so forgive me - this is my first tab, but I thought I'd give it a shot because 
I think I've got this song right - at least the first bit - I'll update with the 
chorus section later.

This song is from the new album that was released today - It's a beautiful acoustic song.

Played in EADGBe

For those of you who know the song Tuolumne by Eddie Vedder, you'll recognize the guitar:

Played throughout each verse:

|------------------|--3--------3-------|--0-------0-------|--3------5------|
|--1--------1------|-------------------|------------------|----------------|
|------0---------0-|------0----------0-|------0---------0-|------0-------0-|
|----2---------2---|----2---------2----|----2--------2----|----2-------2---|
|--3------3--------|--3------3---------|--3------3--------|--3------3------|
|------------------|-------------------|------------------|----------------|

|------------------|------------------|------------------|----------------|
|--3--------3------|--5---------5-----|--3--------3------|--0-------3-----|
|------0---------0-|------0---------0-|------0---------0-|------0-------0-|
|----0---------0---|----0---------0---|----0---------0---|----0-------0---|
|------------------|------------------|------------------|----------------|
|--3-------3-------|--3-------3-------|--3-------3-------|--3-------3-----|


I will update as soon as I can with the chorus section - should be here within a day or two.

What an awesome album, too.

Hope it's not too off what the actual playing is...
Tap to rate this tab
 
# A B C D E F G H I J K L M N O P Q R S T U V W X Y Z