Song name
# A B C D E F G H I J K L M N O P Q R S T U V W X Y Z

Pearl Jam - Just Breathe tab

----------------------------------------------------------------------------
			     JUST BREATHE - Pearl Jam
----------------------------------------------------------------------------

Tabbed by: Gareth (MojoPin182) 21.09.2009

Tuning: Standard

This the way I play it. Its slightly different to the album version with a few added notes.

Video here (copy and paste link): http://www.youtube.com/watch?v=GkRH5IFCnA8

Intro Riff x 2

e|-------------1-----1-----0-----0-----3---5-------------|
B|-1-----1---------1-----1-----1-----1---0---0-----------|
G|-----0-----0---0-----0-----0-----0---------------------|
D|---2-----2---------------------------------------------|
A|-3-----3-----3-----3-----3-----3-----3-----------------|
E|-------------------------------------------0-----------|

e|-------------------------------------------------------|
B|-3-----3-----5-----5-----3-----3-----0---3-0-----------|
G|-----0-----0-----0-----0-----0-----0---0---------------|
D|---0-----0-----0-----0-----0-----0---------------------|
A|-------------------------------------------------------|
E|-3-----3-----3-----3-----3-----3-----3---3-0-----------|

Verse

e|-------------1-----1-----0-----0-----1-----1-----------|
B|-1-----1---------1-----1-----1-----1-----1-----1-------|
G|-----0-----0---0-----0-----0-----0-----0-----0---------|
D|---2-----2---------------------------------------------|
A|-3-----3-----3-----3-----3-----3-----3-----3-----------|
E|-------------------------------------------------------|

e|-------------------------------------------------------|
B|-3-----3-----5-----5-----3-----3-----0---3-0-----------|
G|-----0-----0-----0-----0-----0-----0---0---------------|
D|---0-----0-----0-----0-----0-----0---------------------|
A|-------------------------------------------------------|
E|-3-----3-----3-----3-----3-----3-----3---3-0-----------|

Chorus

e|-0-----0-----3-----3-----0-----0-----3-----3-----------|
B|-------------------------------------------------------|
G|-----0-----0-----0-----0-----0-----0-----0-----0-------|
D|---2-----2-----2-----2-----2-----2-----2-----2---------|
A|-3-----3-----3-----3-----3-----3-----3-----3-----------|
E|-------------------------------------------------------|


e|-1-----1-----3-----3-----1-----1-----1-----------------|
B|-----1-----1-----1-----1-----1-----1---1---------------|
G|---2-----2-----2-----2-----2-----2-------2-------------|
D|-3-----3-----3-----3-----3-----3-----3-----------------|
A|-------------------------------------------------------|
E|-------------------------------------------------------|
Tap to rate this tab
# A B C D E F G H I J K L M N O P Q R S T U V W X Y Z