Song name
# A B C D E F G H I J K L M N O P Q R S T U V W X Y Z

Pelican - Drought tab

                                    Drought                                     


                                                                         Pelican
Guitar 1 Rhythm



E ||-------|-------|-------|-------|-------|-------|
B ||-------|-------|-------|-------|-------|-------|
E ||-------|-------|-------|-------|-------|-------|
B ||-------|-------|-------|-------|-------|-------|
F#||-------|-------|-------|-------|-------|-------|
B ||-------|-------|-------|-------|-------|-------|


  0:16                                                        
  PM   PM PM PM PM       PM       PM PM PM PM PM       PM     
  E    E  S  S  E  E  E  E  E     E  E  S  S  E  E  E  E  E   
-------------------------------|-----------------------------|
-------------------------------|-----------------------------|
-------------------------------|-----------------------------|
-------------------7--8--------|-----------------7--8--------|
--0----0--0--0--0--7--8--0--0--|--0--0--0--0--0--7--8--0--0--|
--0----0--0--0--0--------0--0--|--0--0--0--0--0--------0--0--|


  0:21                                                        
  PM   PM PM PM PM       PM       PM PM PM PM PM       PM     
  E    E  S  S  E  E  E  E  E     E  E  S  S  E  E  E  E  E   
-------------------------------|-----------------------------|
-------------------------------|-----------------------------|
-------------------------------|-----------------------------|
-------------------7--8--------|-----------------7--8--------|
--0----0--0--0--0--7--8--0--0--|--0--0--0--0--0--7--8--0--0--|
--0----0--0--0--0--------0--0--|--0--0--0--0--0--------0--0--|


  0:25                                                        
  PM   PM PM PM PM       PM       PM PM PM PM PM       PM     
  E    E  S  S  E  E  E  E  E     E  E  S  S  E  E  E  E  E   
-------------------------------|-----------------------------|
-------------------------------|-----------------------------|
-------------------------------|-----------------------------|
-------------------7--8--------|-----------------7--8--------|
--0----0--0--0--0--7--8--0--0--|--0--0--0--0--0--7--8--0--0--|
--0----0--0--0--0--------0--0--|--0--0--0--0--0--------0--0--|


  0:30                                                        
  PM   PM PM PM PM       PM       PM PM PM PM PM       PM     
  E    E  S  S  E  E  E  E  E     E  E  S  S  E  E  E  E  E   
-------------------------------|-----------------------------|
-------------------------------|-----------------------------|
-------------------------------|-----------------------------|
-------------------7--8--------|-----------------7--8--------|
--0----0--0--0--0--7--8--0--0--|--0--0--0--0--0--7--8--0--0--|
--0----0--0--0--0--------0--0--|--0--0--0--0--0--------0--0--|


  0:34                                                        
  PM   PM PM PM PM       PM       PM PM PM PM PM       PM     
  E    E  S  S  E  E  E  E  E     E  E  S  S  E  E  E  E  E   
-------------------------------|-----------------------------|
-------------------------------|-----------------------------|
-------------------------------|-----------------------------|
-------------------7--8--------|-----------------7--8--------|
--0----0--0--0--0--7--8--0--0--|--0--0--0--0--0--7--8--0--0--|
--0----0--0--0--0--------0--0--|--0--0--0--0--0--------0--0--|


  0:39                                                        
  PM   PM PM PM PM       PM       PM PM PM PM PM       PM     
  E    E  S  S  E  E  E  E  E     E  E  S  S  E  E  E  E  E   
-------------------------------|-----------------------------|
-------------------------------|-----------------------------|
-------------------------------|-----------------------------|
-------------------7--8--------|-----------------7--8--------|
--0----0--0--0--0--7--8--0--0--|--0--0--0--0--0--7--8--0--0--|
--0----0--0--0--0--------0--0--|--0--0--0--0--0--------0--0--|


  0:43                                                        
  PM   PM PM PM PM       PM       PM PM PM PM PM       PM     
  E    E  S  S  E  E  E  E  E     E  E  S  S  E  E  E  E  E   
-------------------------------|-----------------------------|
-------------------------------|-----------------------------|
-------------------------------|-----------------------------|
-------------------7--8--------|-----------------7--8--------|
--0----0--0--0--0--7--8--0--0--|--0--0--0--0--0--7--8--0--0--|
--0----0--0--0--0--------0--0--|--0--0--0--0--0--------0--0--|


  0:48                                                        
  PM   PM PM PM PM       PM       PM PM PM PM PM       PM     
  E    E  S  S  E  E  E  E  E     E  E  S  S  E  E  E  E  E   
-------------------------------|-----------------------------|
-------------------------------|-----------------------------|
-------------------------------|-----------------------------|
-------------------7--8--------|-----------------7--8--------|
--0----0--0--0--0--7--8--0--0--|--0--0--0--0--0--7--8--0--0--|
--0----0--0--0--0--------0--0--|--0--0--0--0--0--------0--0--|


  0:52 (lead comes in)                                                        
  PM                   PM PM PM PM       PM       PM PM PM PM PM              
  E                    E  S  S  E  E  E  E  E     E  E  S  S  E  E  E  E  E   
-----------------------------------------------|-----------------------------|
-----------------------------------------------|-----------------------------|
-----------------------------------------------|-----------------------------|
-----------------------------------7--8--------|-----------------8--7--8--7--|
--0--------------------0--0--0--0--7--8--0--0--|--0--0--0--0--0--8--7--8--7--|
--0--------------------0--0--0--0--------0--0--|--0--0--0--0--0--------------|


  0:56                                                        
  PM   PM PM PM PM       PM       PM PM PM PM PM              
  E    E  S  S  E  E  E  E  E     E  E  S  S  E  E  E  E  E   
-------------------------------|-----------------------------|
-------------------------------|-----------------------------|
-------------------------------|-----------------------------|
-------------------7--8--------|-----------------8--7--8--7--|
--0----0--0--0--0--7--8--0--0--|--0--0--0--0--0--8--7--8--7--|
--0----0--0--0--0--------0--0--|--0--0--0--0--0--------------|


  1:00                                                        
  PM   PM PM PM PM       PM       PM PM PM PM PM              
  E    E  S  S  E  E  E  E  E     E  E  S  S  E  E  E  E  E   
-------------------------------|-----------------------------|
-------------------------------|-----------------------------|
-------------------------------|-----------------------------|
-------------------7--8--------|-----------------8--7--8--7--|
--0----0--0--0--0--7--8--0--0--|--0--0--0--0--0--8--7--8--7--|
--0----0--0--0--0--------0--0--|--0--0--0--0--0--------------|


  1:04                                                        
  PM   PM PM PM PM       PM       PM PM PM PM PM              
  E    E  S  S  E  E  E  E  E     E  E  S  S  E  E  E  E  E   
-------------------------------|-----------------------------|
-------------------------------|-----------------------------|
-------------------------------|-----------------------------|
-------------------7--8--------|-----------------8--7--8--7--|
--0----0--0--0--0--7--8--0--0--|--0--0--0--0--0--8--7--8--7--|
--0----0--0--0--0--------0--0--|--0--0--0--0--0--------------|


  1:09                                                                    
  PM      PM    PM PM PM PM PM PM       PM    PM    PM PM PM PM PM PM     
  E    E  E  E  S  S  S  S  S  S  E     E  E  E  E  S  S  S  S  S  S  E   
-------------------------------------|-----------------------------------|
-------------------------------------|-----------------------------------|
-------------------------------------|-----------------------------------|
-------------------------------------|-----------------------------------|
--0----0--0--0--3--1--0--0--0--0--1--|--0--0--0--0--3--1--0--0--0--0--1--|
--0----0--0--0--3--1--0--0--0--0--1--|--0--0--0--0--3--1--0--0--0--0--1--|


  PM    PM    PM PM PM PM PM PM       PM    PM    PM PM    PM PM     
  E  E  E  E  S  S  S  S  S  S  E     E  E  E  E  S  S  E  S  S  E   
-----------------------------------|--------------------------------|
-----------------------------------|--------------------------------|
-----------------------------------|--------------------------------|
-----------------------------------|--------------------------------|
--0--0--0--0--3--1--0--0--0--0--1--|--0--0--0--0--3--3--3--2--2--2--|
--0--0--0--0--3--1--0--0--0--0--1--|--0--0--0--0--3--3--3--2--2--2--|


  1:17                                                                    
  PM      PM    PM PM PM PM PM PM       PM    PM    PM PM PM PM PM PM     
  E    E  E  E  S  S  S  S  S  S  E     E  E  E  E  S  S  S  S  S  S  E   
-------------------------------------|-----------------------------------|
-------------------------------------|-----------------------------------|
-------------------------------------|-----------------------------------|
-------------------------------------|-----------------------------------|
--0----0--0--0--3--1--0--0--0--0--1--|--0--0--0--0--3--1--0--0--0--0--1--|
--0----0--0--0--3--1--0--0--0--0--1--|--0--0--0--0--3--1--0--0--0--0--1--|


  PM    PM    PM PM PM PM PM PM       PM    PM    PM PM    PM PM     
  E  E  E  E  S  S  S  S  S  S  E     E  E  E  E  S  S  E  S  S  E   
-----------------------------------|--------------------------------|
-----------------------------------|--------------------------------|
-----------------------------------|--------------------------------|
-----------------------------------|--------------------------------|
--0--0--0--0--3--1--0--0--0--0--1--|--0--0--0--0--1--1--1--1--1--1--|
--0--0--0--0--3--1--0--0--0--0--1--|--0--0--0--0--1--1--1--1--1--1--|


  1:25                                                                    
  PM      PM    PM PM PM PM PM PM       PM    PM    PM PM PM PM PM PM     
  E    E  E  E  S  S  S  S  S  S  E     E  E  E  E  S  S  S  S  S  S  E   
-------------------------------------|-----------------------------------|
-------------------------------------|-----------------------------------|
-------------------------------------|-----------------------------------|
-------------------------------------|-----------------------------------|
--0----0--0--0--3--1--0--0--0--0--1--|--0--0--0--0--3--1--0--0--0--0--1--|
--0----0--0--0--3--1--0--0--0--0--1--|--0--0--0--0--3--1--0--0--0--0--1--|


  PM    PM    PM PM PM PM PM PM       PM    PM    PM PM    PM PM     
  E  E  E  E  S  S  S  S  S  S  E     E  E  E  E  S  S  E  S  S  E   
-----------------------------------|--------------------------------|
-----------------------------------|--------------------------------|
-----------------------------------|--------------------------------|
-----------------------------------|--------------------------------|
--0--0--0--0--3--1--0--0--0--0--1--|--0--0--0--0--3--3--3--2--2--2--|
--0--0--0--0--3--1--0--0--0--0--1--|--0--0--0--0--3--3--3--2--2--2--|


  1:33                                                                    
  PM      PM    PM PM PM PM PM PM       PM    PM    PM PM PM PM PM PM     
  E    E  E  E  S  S  S  S  S  S  E     E  E  E  E  S  S  S  S  S  S  E   
-------------------------------------|-----------------------------------|
-------------------------------------|-----------------------------------|
-------------------------------------|-----------------------------------|
-------------------------------------|-----------------------------------|
--0----0--0--0--3--1--0--0--0--0--1--|--0--0--0--0--3--1--0--0--0--0--1--|
--0----0--0--0--3--1--0--0--0--0--1--|--0--0--0--0--3--1--0--0--0--0--1--|


  PM    PM    PM PM PM PM PM PM       PM    PM    PM PM    PM PM     
  E  E  E  E  S  S  S  S  S  S  E     E  E  E  E  S  S  E  S  S  E   
-----------------------------------|--------------------------------|
-----------------------------------|--------------------------------|
-----------------------------------|--------------------------------|
-----------------------------------|--------------------------------|
--0--0--0--0--3--1--0--0--0--0--1--|--0--0--0--0--1--1--1--1--1--1--|
--0--0--0--0--3--1--0--0--0--0--1--|--0--0--0--0--1--1--1--1--1--1--|


  1:40                                                        
  PM   PM PM PM PM       PM       PM PM PM PM PM              
  E    E  S  S  E  E  E  E  E     E  E  S  S  E  E  E  E  E   
-------------------------------|-----------------------------|
-------------------------------|-----------------------------|
-------------------------------|-----------------------------|
-------------------7--8--------|-----------------8--7--8--7--|
--0----0--0--0--0--7--8--0--0--|--0--0--0--0--0--8--7--8--7--|
--0----0--0--0--0--------0--0--|--0--0--0--0--0--------------|


  PM PM PM PM PM       PM       PM PM PM PM PM              
  E  E  S  S  E  E  E  E  E     E  E  S  S  E  E  E  E  E   
-----------------------------|-----------------------------|
-----------------------------|-----------------------------|
-----------------------------|-----------------------------|
-----------------7--8--------|-----------------8--7--8--7--|
--0--0--0--0--0--7--8--0--0--|--0--0--0--0--0--8--7--8--7--|
--0--0--0--0--0--------0--0--|--0--0--0--0--0--------------|


  1:49                                                        
  PM   PM PM PM PM       PM       PM PM PM PM PM              
  E    E  S  S  E  E  E  E  E     E  E  S  S  E  E  E  E  E   
-------------------------------|-----------------------------|
-------------------------------|-----------------------------|
-------------------------------|-----------------------------|
-------------------7--8--------|-----------------8--7--8--7--|
--0----0--0--0--0--7--8--0--0--|--0--0--0--0--0--8--7--8--7--|
--0----0--0--0--0--------0--0--|--0--0--0--0--0--------------|


  PM PM PM PM PM       PM       PM PM PM PM PM              
  E  E  S  S  E  E  E  E  E     E  E  S  S  E  E  E  E  E   
-----------------------------|-----------------------------|
-----------------------------|-----------------------------|
-----------------------------|-----------------------------|
-----------------7--8--------|-----------------8--7--8--7--|
--0--0--0--0--0--7--8--0--0--|--0--0--0--0--0--8--7--8--7--|
--0--0--0--0--0--------0--0--|--0--0--0--0--0--------------|


  1:57 (lead again)                                                        
  PM                PM PM PM PM       PM       PM PM PM PM PM              
  E                 E  S  S  E  E  E  E  E     E  E  S  S  E  E  E  E  E   
--------------------------------------------|-----------------------------|
--------------------------------------------|-----------------------------|
--------------------------------------------|-----------------------------|
--------------------------------7--8--------|-----------------8--7--8--7--|
--0-----------------0--0--0--0--7--8--0--0--|--0--0--0--0--0--8--7--8--7--|
--0-----------------0--0--0--0--------0--0--|--0--0--0--0--0--------------|


  PM PM PM PM PM       PM       PM PM PM PM PM              
  E  E  S  S  E  E  E  E  E     E  E  S  S  E  E  E  E  E   
-----------------------------|-----------------------------|
-----------------------------|-----------------------------|
-----------------------------|-----------------------------|
-----------------7--8--------|-----------------8--7--8--7--|
--0--0--0--0--0--7--8--0--0--|--0--0--0--0--0--8--7--8--7--|
--0--0--0--0--0--------0--0--|--0--0--0--0--0--------------|


  2:05                                                        
  PM   PM PM PM PM       PM       PM PM PM PM PM              
  E    E  S  S  E  E  E  E  E     E  E  S  S  E  E  E  E  E   
-------------------------------|-----------------------------|
-------------------------------|-----------------------------|
-------------------------------|-----------------------------|
-------------------7--8--------|-----------------8--7--8--7--|
--0----0--0--0--0--7--8--0--0--|--0--0--0--0--0--8--7--8--7--|
--0----0--0--0--0--------0--0--|--0--0--0--0--0--------------|


  PM PM PM PM PM       PM       PM PM PM PM PM              
  E  E  S  S  E  E  E  E  E     E  E  S  S  E  E  E  E  E   
-----------------------------|-----------------------------|
-----------------------------|-----------------------------|
-----------------------------|-----------------------------|
-----------------7--8--------|-----------------8--7--8--7--|
--0--0--0--0--0--7--8--0--0--|--0--0--0--0--0--8--7--8--7--|
--0--0--0--0--0--------0--0--|--0--0--0--0--0--------------|


  2:13                                                                    
  PM      PM    PM PM PM PM PM PM       PM    PM    PM PM PM PM PM PM     
  E    E  E  E  S  S  S  S  S  S  E     E  E  E  E  S  S  S  S  S  S  E   
-------------------------------------|-----------------------------------|
-------------------------------------|-----------------------------------|
-------------------------------------|-----------------------------------|
-------------------------------------|-----------------------------------|
--0----0--0--0--3--1--0--0--0--0--1--|--0--0--0--0--3--1--0--0--0--0--1--|
--0----0--0--0--3--1--0--0--0--0--1--|--0--0--0--0--3--1--0--0--0--0--1--|


  PM    PM    PM PM PM PM PM PM       PM    PM    PM PM    PM PM     
  E  E  E  E  S  S  S  S  S  S  E     E  E  E  E  S  S  E  S  S  E   
-----------------------------------|--------------------------------|
-----------------------------------|--------------------------------|
-----------------------------------|--------------------------------|
-----------------------------------|--------------------------------|
--0--0--0--0--3--1--0--0--0--0--1--|--0--0--0--0--3--3--3--1--1--1--|
--0--0--0--0--3--1--0--0--0--0--1--|--0--0--0--0--3--3--3--1--1--1--|


  2:21                                                                    
  PM      PM    PM PM PM PM PM PM       PM    PM    PM PM PM PM PM PM     
  E    E  E  E  S  S  S  S  S  S  E     E  E  E  E  S  S  S  S  S  S  E   
-------------------------------------|-----------------------------------|
-------------------------------------|-----------------------------------|
-------------------------------------|-----------------------------------|
-------------------------------------|-----------------------------------|
--0----0--0--0--3--1--0--0--0--0--1--|--0--0--0--0--3--1--0--0--0--0--1--|
--0----0--0--0--3--1--0--0--0--0--1--|--0--0--0--0--3--1--0--0--0--0--1--|


  PM    PM    PM PM PM PM PM PM       PM    PM    PM PM    PM PM     
  E  E  E  E  S  S  S  S  S  S  E     E  E  E  E  S  S  E  S  S  E   
-----------------------------------|--------------------------------|
-----------------------------------|--------------------------------|
-----------------------------------|--------------------------------|
-----------------------------------|--------------------------------|
--0--0--0--0--3--1--0--0--0--0--1--|--0--0--0--0--1--1--1--1--1--1--|
--0--0--0--0--3--1--0--0--0--0--1--|--0--0--0--0--1--1--1--1--1--1--|


  2:29                                                                    
  PM      PM    PM PM PM PM PM PM       PM    PM    PM PM PM PM PM PM     
  E    E  E  E  S  S  S  S  S  S  E     E  E  E  E  S  S  S  S  S  S  E   
-------------------------------------|-----------------------------------|
-------------------------------------|-----------------------------------|
-------------------------------------|-----------------------------------|
-------------------------------------|-----------------------------------|
--0----0--0--0--3--1--0--0--0--0--1--|--0--0--0--0--3--1--0--0--0--0--1--|
--0----0--0--0--3--1--0--0--0--0--1--|--0--0--0--0--3--1--0--0--0--0--1--|


  PM    PM    PM PM PM PM PM PM       PM    PM    PM PM    PM PM     
  E  E  E  E  S  S  S  S  S  S  E     E  E  E  E  S  S  E  S  S  E   
-----------------------------------|--------------------------------|
-----------------------------------|--------------------------------|
-----------------------------------|--------------------------------|
-----------------------------------|--------------------------------|
--0--0--0--0--3--1--0--0--0--0--1--|--0--0--0--0--3--3--3--1--1--1--|
--0--0--0--0--3--1--0--0--0--0--1--|--0--0--0--0--3--3--3--1--1--1--|


  2:37                                                                    
  PM      PM    PM PM PM PM PM PM       PM    PM    PM PM PM PM PM PM     
  E    E  E  E  S  S  S  S  S  S  E     E  E  E  E  S  S  S  S  S  S  E   
-------------------------------------|-----------------------------------|
-------------------------------------|-----------------------------------|
-------------------------------------|-----------------------------------|
-------------------------------------|-----------------------------------|
--0----0--0--0--3--1--0--0--0--0--1--|--0--0--0--0--3--1--0--0--0--0--1--|
--0----0--0--0--3--1--0--0--0--0--1--|--0--0--0--0--3--1--0--0--0--0--1--|


  PM    PM    PM PM PM PM PM PM       PM    PM    PM PM    PM PM     
  E  E  E  E  S  S  S  S  S  S  E     E  E  E  E  S  S  E  S  S  E   
-----------------------------------|--------------------------------|
-----------------------------------|--------------------------------|
-----------------------------------|--------------------------------|
-----------------------------------|--------------------------------|
--0--0--0--0--3--1--0--0--0--0--1--|--0--0--0--0--1--1--1--1--1--1--|
--0--0--0--0--3--1--0--0--0--0--1--|--0--0--0--0--1--1--1--1--1--1--|


  2:45                                                              
  PM            PM    PM PM PM PM    PM          PM    PM PM PM PM  
  E    E  Q     E  E  S  S  S  S     E  E  Q     E  E  S  S  S  S   
----------------------------------|--------------------------------|
----------------------------------|--------------------------------|
----------------------------------|--------------------------------|
----------8-----------------------|--------7-----------------------|
--0----0--8~----0--0--0--0--0--0--|--0--0--7~----0--0--0--0--0--0--|
--0----0--------0--0--0--0--0--0--|--0--0--------0--0--0--0--0--0--|


  2:48                                                              
  PM            PM    PM PM PM PM    PM          PM    PM PM PM PM  
  E    E  Q     E  E  S  S  S  S     E  E  Q     E  E  S  S  S  S   
----------------------------------|--------------------------------|
----------------------------------|--------------------------------|
----------------------------------|--------------------------------|
----------8-----------------------|--------7-----------------------|
--0----0--8~----0--0--0--0--0--0--|--0--0--7~----0--0--0--0--0--0--|
--0----0--------0--0--0--0--0--0--|--0--0--------0--0--0--0--0--0--|


  2:51                                                              
  PM            PM    PM PM PM PM    PM          PM    PM PM PM PM  
  E    E  Q     E  E  S  S  S  S     E  E  Q     E  E  S  S  S  S   
----------------------------------|--------------------------------|
----------------------------------|--------------------------------|
----------------------------------|--------------------------------|
----------8-----------------------|--------7-----------------------|
--0----0--8~----0--0--0--0--0--0--|--0--0--7~----0--0--0--0--0--0--|
--0----0--------0--0--0--0--0--0--|--0--0--------0--0--0--0--0--0--|


  PM          PM    PM PM PM PM    PM          PM    PM PM PM PM  
  E  E  Q     E  E  S  S  S  S     E  E  Q     E  E  S  S  S  S   
--------------------------------|--------------------------------|
--------------------------------|--------------------------------|
--------------------------------|--------------------------------|
--------8-----------------------|--------7-----------------------|
--0--0--8~----0--0--0--0--0--0--|--0--0--7~----0--0--0--0--0--0--|
--0--0--------0--0--0--0--0--0--|--0--0--------0--0--0--0--0--0--|


  2:58                                                              
  PM   PM    PM    PM PM PM PM PM    PM PM    PM    PM PM PM PM PM  
  E    E  E  E  E  E  S  S  S  S     E  E  E  E  E  E  S  S  S  S   
----------------------------------|--------------------------------|
----------------------------------|--------------------------------|
----------------------------------|--------------------------------|
----------5-----------------------|--------3-----------------------|
--0----0--5--0--0--0--0--0--0--0--|--0--0--3--0--0--0--0--0--0--0--|
--0----0--5--0--0--0--0--0--0--0--|--0--0--3--0--0--0--0--0--0--0--|


  PM PM    PM    PM PM PM PM PM    PM PM    PM    PM PM PM PM PM  
  E  E  E  E  E  E  S  S  S  S     E  E  E  E  E  E  S  S  S  S   
--------------------------------|--------------------------------|
--------------------------------|--------------------------------|
--------------------------------|--------------------------------|
--------5-----------------------|--------3-----------------------|
--0--0--5--0--0--0--0--0--0--0--|--0--0--3--0--0--0--0--0--0--0--|
--0--0--5--0--0--0--0--0--0--0--|--0--0--3--0--0--0--0--0--0--0--|


  3:04                                                              
  PM   PM    PM    PM PM PM PM PM    PM PM    PM    PM PM PM PM PM  
  E    E  E  E  E  E  S  S  S  S     E  E  E  E  E  E  S  S  S  S   
----------------------------------|--------------------------------|
----------------------------------|--------------------------------|
----------------------------------|--------------------------------|
----------5-----------------------|--------3-----------------------|
--0----0--5--0--0--0--0--0--0--0--|--0--0--3--0--0--0--0--0--0--0--|
--0----0--5--0--0--0--0--0--0--0--|--0--0--3--0--0--0--0--0--0--0--|


  PM PM    PM    PM PM PM PM PM    PM PM    PM    PM PM PM PM PM  
  E  E  E  E  E  E  S  S  S  S     E  E  E  E  E  E  S  S  S  S   
--------------------------------|--------------------------------|
--------------------------------|--------------------------------|
--------------------------------|--------------------------------|
--------5-----------------------|--------3-----------------------|
--0--0--5--0--0--0--0--0--0--0--|--0--0--3--0--0--0--0--0--0--0--|
--0--0--5--0--0--0--0--0--0--0--|--0--0--3--0--0--0--0--0--0--0--|


  3:11                                                                    
  Q    E  E  Q    E  E     Q    Q    E  E  Q       Q    E  E  Q    E  E   
------------------------|-----------------------|------------------------|
------------------------|-----------------------|------------------------|
------------------------|-----------------------|------------------------|
--0----0--1--0----0--1--|--0---------0--1--0----|-------0--1--0----0--1--|
--0----0--1--0----0--1--|--0----0----0--1--0----|--0----0--1--0----0--1--|
--0----0--1--0----0--1--|--0----0----0--1--0----|--0----0--1--0----0--1--|


                          3:18                                           
  Q    Q    E  E  Q       Q    E  E  Q    E  E     Q    Q    E  E  Q     
-----------------------|------------------------|-----------------------|
-----------------------|------------------------|-----------------------|
-----------------------|------------------------|-----------------------|
--0---------0--1--0----|--0----0--1--0----0--1--|--0---------0--1--0----|
--0----0----0--1--0----|--0----0--1--0----0--1--|--0----0----0--1--0----|
--0----0----0--1--0----|--0----0--1--0----0--1--|--0----0----0--1--0----|


  Q    E  E  Q    E  E     Q    Q    E  E  Q     
------------------------|-----------------------|
------------------------|-----------------------|
------------------------|-----------------------|
-------0--1--0----0--1--|--0---------0--1--0----|
--0----0--1--0----0--1--|--0----0----0--1--0----|
--0----0--1--0----0--1--|--0----0----0--1--0----|


  3:25                                                              
  PM   PM       PM    PM PM PM PM    PM PM       PM    PM PM PM PM  
  E    E  Q     E  E  S  S  S  S     E  E  Q     E  E  S  S  S  S   
----------------------------------|--------------------------------|
----------------------------------|--------------------------------|
----------------------------------|--------------------------------|
----------5-----------------------|--------3-----------------------|
--0----0--5-----0--0--0--0--0--0--|--0--0--3~----0--0--0--0--0--0--|
--0----0--5~----0--0--0--0--0--0--|--0--0--3-----0--0--0--0--0--0--|


  PM PM       PM    PM PM PM PM    PM PM       PM    PM PM PM PM  
  E  E  Q     E  E  S  S  S  S     E  E  Q     E  E  S  S  S  S   
--------------------------------|--------------------------------|
--------------------------------|--------------------------------|
--------------------------------|--------------------------------|
--------5-----------------------|--------3~----------------------|
--0--0--5~----0--0--0--0--0--0--|--0--0--3-----0--0--0--0--0--0--|
--0--0--5-----0--0--0--0--0--0--|--0--0--3-----0--0--0--0--0--0--|


  3:31                                                              
  PM   PM       PM    PM PM PM PM    PM PM       PM    PM PM PM PM  
  E    E  Q     E  E  S  S  S  S     E  E  Q     E  E  S  S  S  S   
----------------------------------|--------------------------------|
----------------------------------|--------------------------------|
----------------------------------|--------------------------------|
----------5-----------------------|--------3-----------------------|
--0----0--5-----0--0--0--0--0--0--|--0--0--3~----0--0--0--0--0--0--|
--0----0--5~----0--0--0--0--0--0--|--0--0--3-----0--0--0--0--0--0--|


  PM PM       PM    PM PM PM PM    PM PM       PM    PM PM PM PM  
  E  E  Q     E  E  S  S  S  S     E  E  Q     E  E  S  S  S  S   
--------------------------------|--------------------------------|
--------------------------------|--------------------------------|
--------------------------------|--------------------------------|
--------5-----------------------|--------3~----------------------|
--0--0--5~----0--0--0--0--0--0--|--0--0--3-----0--0--0--0--0--0--|
--0--0--5-----0--0--0--0--0--0--|--0--0--3-----0--0--0--0--0--0--|


  3:37                                                              
  PM   PM    PM    PM PM PM PM PM    PM PM    PM    PM PM PM PM PM  
  E    E  E  E  E  E  S  S  S  S     E  E  E  E  E  E  S  S  S  S   
----------------------------------|--------------------------------|
----------------------------------|--------------------------------|
----------------------------------|--------------------------------|
----------5-----------------------|--------3-----------------------|
--0----0--5--0--0--0--0--0--0--0--|--0--0--3--0--0--0--0--0--0--0--|
--0----0--5--0--0--0--0--0--0--0--|--0--0--3--0--0--0--0--0--0--0--|


  PM PM    PM    PM PM PM PM PM    PM PM    PM    PM PM PM PM PM  
  E  E  E  E  E  E  S  S  S  S     E  E  E  E  E  E  S  S  S  S   
--------------------------------|--------------------------------|
--------------------------------|--------------------------------|
--------------------------------|--------------------------------|
--------5-----------------------|--------3-----------------------|
--0--0--5--0--0--0--0--0--0--0--|--0--0--3--0--0--0--0--0--0--0--|
--0--0--5--0--0--0--0--0--0--0--|--0--0--3--0--0--0--0--0--0--0--|


  3:44                                                              
  PM   PM    PM    PM PM PM PM PM    PM PM    PM    PM PM PM PM PM  
  E    E  E  E  E  E  S  S  S  S     E  E  E  E  E  E  S  S  S  S   
----------------------------------|--------------------------------|
----------------------------------|--------------------------------|
----------------------------------|--------------------------------|
----------5-----------------------|--------3-----------------------|
--0----0--5--0--0--0--0--0--0--0--|--0--0--3--0--0--0--0--0--0--0--|
--0----0--5--0--0--0--0--0--0--0--|--0--0--3--0--0--0--0--0--0--0--|


  PM PM    PM    PM PM PM PM PM    PM PM    PM    PM PM PM PM PM  
  E  E  E  E  E  E  S  S  S  S     E  E  E  E  E  E  S  S  S  S   
--------------------------------|--------------------------------|
--------------------------------|--------------------------------|
--------------------------------|--------------------------------|
--------5-----------------------|--------3-----------------------|
--0--0--5--0--0--0--0--0--0--0--|--0--0--3--0--0--0--0--0--0--0--|
--0--0--5--0--0--0--0--0--0--0--|--0--0--3--0--0--0--0--0--0--0--|


  3:50                                                                    
  Q    E  E  Q    E  E     Q    Q    E  E  Q       Q    E  E  Q    E  E   
------------------------|-----------------------|------------------------|
------------------------|-----------------------|------------------------|
------------------------|-----------------------|------------------------|
--0----0--1--0----0--1--|--0---------0--1--0----|-------0--1--0----0--1--|
--0----0--1--0----0--1--|--0----0----0--1--0----|--0----0--1--0----0--1--|
--0----0--1--0----0--1--|--0----0----0--1--0----|--0----0--1--0----0--1--|


                          3:57                                           
  Q    Q    E  E  Q       Q    E  E  Q    E  E     Q    Q    E  E  Q     
-----------------------|------------------------|-----------------------|
-----------------------|------------------------|-----------------------|
-----------------------|------------------------|-----------------------|
--0---------0--1--0----|--0----0--1--0----0--1--|--0---------0--1--0----|
--0----0----0--1--0----|--0----0--1--0----0--1--|--0----0----0--1--0----|
--0----0----0--1--0----|--0----0--1--0----0--1--|--0----0----0--1--0----|


  Q    E  E  Q    E  E     Q    Q    E  E  Q     
------------------------|-----------------------|
------------------------|-----------------------|
------------------------|-----------------------|
-------0--1--0----0--1--|--0---------0--1--0----|
--0----0--1--0----0--1--|--0----0----0--1--0----|
--0----0--1--0----0--1--|--0----0----0--1--0----|


  4:04                                                                    
  PM      PM PM PM PM PM PM PM PM       PM    PM PM PM PM PM PM PM PM     
  E    E  E  S  S  S  S  S  S  E  E     E  E  E  S  S  S  S  S  S  E  E   
-------------------------------------|-----------------------------------|
-------------------------------------|-----------------------------------|
-------------------------------------|-----------------------------------|
----------------------------------0--|--------------------------------0--|
--0----0--0--0--0--0--0--0--0--0--0--|--0--0--0--0--0--0--0--0--0--0--0--|
--0----0--0--0--0--0--0--0--0--0--0--|--0--0--0--0--0--0--0--0--0--0--0--|


  PM    PM PM PM PM PM PM PM PM       PM    PM PM PM PM PM PM PM PM     
  E  E  E  S  S  S  S  S  S  E  E     E  E  E  S  S  S  S  S  S  E  E   
-----------------------------------|-----------------------------------|
-----------------------------------|-----------------------------------|
-----------------------------------|-----------------------------------|
--------------------------------0--|--------------------------------0--|
--0--0--0--0--0--0--0--0--0--0--0--|--0--0--0--0--0--0--0--0--0--0--0--|
--0--0--0--0--0--0--0--0--0--0--0--|--0--0--0--0--0--0--0--0--0--0--0--|


  4:10                                                                    
  PM      PM PM PM PM PM PM PM PM       PM    PM PM PM PM PM PM PM PM     
  E    E  E  S  S  S  S  S  S  E  E     E  E  E  S  S  S  S  S  S  E  E   
-------------------------------------|-----------------------------------|
-------------------------------------|-----------------------------------|
-------------------------------------|-----------------------------------|
----------------------------------0--|--------------------------------0--|
--0----0--0--0--0--0--0--0--0--0--0--|--0--0--0--0--0--0--0--0--0--0--0--|
--0----0--0--0--0--0--0--0--0--0--0--|--0--0--0--0--0--0--0--0--0--0--0--|


  PM    PM PM PM PM PM PM PM PM       PM    PM PM PM PM PM PM PM PM     
  E  E  E  S  S  S  S  S  S  E  E     E  E  E  S  S  S  S  S  S  E  E   
-----------------------------------|-----------------------------------|
-----------------------------------|-----------------------------------|
-----------------------------------|-----------------------------------|
--------------------------------0--|--------------------------------0--|
--0--0--0--0--0--0--0--0--0--0--0--|--0--0--0--0--0--0--0--0--0--0--0--|
--0--0--0--0--0--0--0--0--0--0--0--|--0--0--0--0--0--0--0--0--0--0--0--|


  4:16                                                                    
  PM      PM PM PM PM PM PM PM PM       PM    PM PM PM PM PM PM PM PM     
  E    E  E  S  S  S  S  S  S  E  E     E  E  E  S  S  S  S  S  S  E  E   
-------------------------------------|-----------------------------------|
-------------------------------------|-----------------------------------|
-------------------------------------|-----------------------------------|
----------------------------------0--|--------------------------------0--|
--0----0--0--0--0--0--0--0--0--0--0--|--0--0--0--0--0--0--0--0--0--0--0--|
--0----0--0--0--0--0--0--0--0--0--0--|--0--0--0--0--0--0--0--0--0--0--0--|


  PM    PM PM PM PM PM PM PM PM       PM    PM PM PM PM PM PM PM PM     
  E  E  E  S  S  S  S  S  S  E  E     E  E  E  S  S  S  S  S  S  E  E   
-----------------------------------|-----------------------------------|
-----------------------------------|-----------------------------------|
-----------------------------------|-----------------------------------|
--------------------------------0--|--------------------------------0--|
--0--0--0--0--0--0--0--0--0--0--0--|--0--0--0--0--0--0--0--0--0--0--0--|
--0--0--0--0--0--0--0--0--0--0--0--|--0--0--0--0--0--0--0--0--0--0--0--|


  4:24                                                                    
  PM      PM PM PM PM PM PM PM PM       PM    PM PM PM PM PM PM PM PM     
  E    E  E  S  S  S  S  S  S  E  E     E  E  E  S  S  S  S  S  S  E  E   
-------------------------------------|-----------------------------------|
-------------------------------------|-----------------------------------|
-------------------------------------|-----------------------------------|
----------------------------------0--|--------------------------------0--|
--0----0--0--0--0--0--0--0--0--0--0--|--0--0--0--0--0--0--0--0--0--0--0--|
--0----0--0--0--0--0--0--0--0--0--0--|--0--0--0--0--0--0--0--0--0--0--0--|


  PM    PM PM PM PM PM PM PM PM       PM    PM PM PM PM PM PM PM PM     
  E  E  E  S  S  S  S  S  S  E  E     E  E  E  S  S  S  S  S  S  E  E   
-----------------------------------|-----------------------------------|
-----------------------------------|-----------------------------------|
-----------------------------------|-----------------------------------|
--------------------------------0--|--------------------------------0--|
--0--0--0--0--0--0--0--0--0--0--0--|--0--0--0--0--0--0--0--0--0--0--0--|
--0--0--0--0--0--0--0--0--0--0--0--|--0--0--0--0--0--0--0--0--0--0--0--|


  4:31 (no lead)                                
  PM                PM PM PM PM PM PM PM PM     
  E              E  E  S  S  S  S  S  S  E  E   
-----------------------------------------------|
-----------------------------------------------|
-----------------------------------------------|
--------------------------------------------0--|
--0--------------0--0--0--0--0--0--0--0--0--0--|
--0--------------0--0--0--0--0--0--0--0--0--0--|


  PM    PM PM PM PM PM PM PM PM       PM    PM PM PM PM PM PM PM PM     
  E  E  E  S  S  S  S  S  S  E  E     E  E  E  S  S  S  S  S  S  E  E   
-----------------------------------|-----------------------------------|
-----------------------------------|-----------------------------------|
-----------------------------------|-----------------------------------|
--------------------------------0--|--------------------------------0--|
--0--0--0--0--0--0--0--0--0--0--0--|--0--0--0--0--0--0--0--0--0--0--0--|
--0--0--0--0--0--0--0--0--0--0--0--|--0--0--0--0--0--0--0--0--0--0--0--|


                                      4:38                                
  PM    PM PM PM PM PM PM PM PM       PM      PM PM PM PM PM PM PM PM     
  E  E  E  S  S  S  S  S  S  E  E     E    E  E  S  S  S  S  S  S  E  E   
-----------------------------------|-------------------------------------|
-----------------------------------|-------------------------------------|
-----------------------------------|-------------------------------------|
--------------------------------0--|----------------------------------0--|
--0--0--0--0--0--0--0--0--0--0--0--|--0----0--0--0--0--0--0--0--0--0--0--|
--0--0--0--0--0--0--0--0--0--0--0--|--0----0--0--0--0--0--0--0--0--0--0--|


  PM    PM PM PM PM PM PM PM PM       PM    PM PM PM PM PM PM PM PM     
  E  E  E  S  S  S  S  S  S  E  E     E  E  E  S  S  S  S  S  S  E  E   
-----------------------------------|-----------------------------------|
-----------------------------------|-----------------------------------|
-----------------------------------|-----------------------------------|
--------------------------------0--|--------------------------------0--|
--0--0--0--0--0--0--0--0--0--0--0--|--0--0--0--0--0--0--0--0--0--0--0--|
--0--0--0--0--0--0--0--0--0--0--0--|--0--0--0--0--0--0--0--0--0--0--0--|


                                      4:45                                
  PM    PM PM PM PM PM PM PM PM       PM      PM PM PM PM PM PM PM PM     
  E  E  E  S  S  S  S  S  S  E  E     E    E  E  S  S  S  S  S  S  E  E   
-----------------------------------|-------------------------------------|
-----------------------------------|-------------------------------------|
-----------------------------------|-------------------------------------|
--------------------------------0--|----------------------------------0--|
--0--0--0--0--0--0--0--0--0--0--0--|--0----0--0--0--0--0--0--0--0--0--0--|
--0--0--0--0--0--0--0--0--0--0--0--|--0----0--0--0--0--0--0--0--0--0--0--|


  PM    PM PM PM PM PM PM PM PM       PM    PM PM PM PM PM PM PM PM     
  E  E  E  S  S  S  S  S  S  E  E     E  E  E  S  S  S  S  S  S  E  E   
-----------------------------------|-----------------------------------|
-----------------------------------|-----------------------------------|
-----------------------------------|-----------------------------------|
--------------------------------0--|--------------------------------0--|
--0--0--0--0--0--0--0--0--0--0--0--|--0--0--0--0--0--0--0--0--0--0--0--|
--0--0--0--0--0--0--0--0--0--0--0--|--0--0--0--0--0--0--0--0--0--0--0--|


                                      4:52                                
  PM    PM PM PM PM PM PM PM PM       PM      PM PM PM PM PM PM PM PM     
  E  E  E  S  S  S  S  S  S  E  E     E    E  E  S  S  S  S  S  S  E  E   
-----------------------------------|-------------------------------------|
-----------------------------------|-------------------------------------|
-----------------------------------|-------------------------------------|
--------------------------------0--|----------------------------------0--|
--0--0--0--0--0--0--0--0--0--0--0--|--0----0--0--0--0--0--0--0--0--0--0--|
--0--0--0--0--0--0--0--0--0--0--0--|--0----0--0--0--0--0--0--0--0--0--0--|


  PM    PM PM PM PM PM PM PM PM       PM    PM PM PM PM PM PM PM PM     
  E  E  E  S  S  S  S  S  S  E  E     E  E  E  S  S  S  S  S  S  E  E   
-----------------------------------|-----------------------------------|
-----------------------------------|-----------------------------------|
-----------------------------------|-----------------------------------|
--------------------------------0--|--------------------------------0--|
--0--0--0--0--0--0--0--0--0--0--0--|--0--0--0--0--0--0--0--0--0--0--0--|
--0--0--0--0--0--0--0--0--0--0--0--|--0--0--0--0--0--0--0--0--0--0--0--|


                                      4:59                                
  PM    PM PM PM PM PM PM PM PM       PM      PM PM PM PM PM PM PM PM     
  E  E  E  S  S  S  S  S  S  E  E     E    E  E  S  S  S  S  S  S  E  E   
-----------------------------------|-------------------------------------|
-----------------------------------|-------------------------------------|
-----------------------------------|-------------------------------------|
--------------------------------0--|----------------------------------0--|
--0--0--0--0--0--0--0--0--0--0--0--|--0----0--0--0--0--0--0--0--0--0--0--|
--0--0--0--0--0--0--0--0--0--0--0--|--0----0--0--0--0--0--0--0--0--0--0--|


  PM    PM PM PM PM PM PM PM PM       PM    PM PM PM PM PM PM PM PM     
  E  E  E  S  S  S  S  S  S  E  E     E  E  E  S  S  S  S  S  S  E  E   
-----------------------------------|-----------------------------------|
-----------------------------------|-----------------------------------|
-----------------------------------|-----------------------------------|
--------------------------------0--|--------------------------------0--|
--0--0--0--0--0--0--0--0--0--0--0--|--0--0--0--0--0--0--0--0--0--0--0--|
--0--0--0--0--0--0--0--0--0--0--0--|--0--0--0--0--0--0--0--0--0--0--0--|


                                      5:06                                
  PM    PM PM PM PM PM PM PM PM       PM      PM PM PM PM PM PM PM PM     
  E  E  E  S  S  S  S  S  S  E  E     E    E  E  S  S  S  S  S  S  E  E   
-----------------------------------|-------------------------------------|
-----------------------------------|-------------------------------------|
-----------------------------------|-------------------------------------|
--------------------------------0--|----------------------------------0--|
--0--0--0--0--0--0--0--0--0--0--0--|--0----0--0--0--0--0--0--0--0--0--0--|
--0--0--0--0--0--0--0--0--0--0--0--|--0----0--0--0--0--0--0--0--0--0--0--|


  PM    PM PM PM PM PM PM PM PM       PM    PM PM PM PM PM PM PM PM     
  E  E  E  S  S  S  S  S  S  E  E     E  E  E  S  S  S  S  S  S  E  E   
-----------------------------------|-----------------------------------|
-----------------------------------|-----------------------------------|
-----------------------------------|-----------------------------------|
--------------------------------0--|--------------------------------0--|
--0--0--0--0--0--0--0--0--0--0--0--|--0--0--0--0--0--0--0--0--0--0--0--|
--0--0--0--0--0--0--0--0--0--0--0--|--0--0--0--0--0--0--0--0--0--0--0--|


                                      5:13                                
  PM    PM PM PM PM PM PM PM PM       PM      PM PM PM PM PM PM PM PM     
  E  E  E  S  S  S  S  S  S  E  E     E    E  E  S  S  S  S  S  S  E  E   
-----------------------------------|-------------------------------------|
-----------------------------------|-------------------------------------|
-----------------------------------|-------------------------------------|
--------------------------------0--|----------------------------------0--|
--0--0--0--0--0--0--0--0--0--0--0--|--0----0--0--0--0--0--0--0--0--0--0--|
--0--0--0--0--0--0--0--0--0--0--0--|--0----0--0--0--0--0--0--0--0--0--0--|


  PM    PM PM PM PM PM PM PM PM       PM    PM PM PM PM PM PM PM PM     
  E  E  E  S  S  S  S  S  S  E  E     E  E  E  S  S  S  S  S  S  E  E   
-----------------------------------|-----------------------------------|
-----------------------------------|-----------------------------------|
-----------------------------------|-----------------------------------|
--------------------------------0--|--------------------------------0--|
--0--0--0--0--0--0--0--0--0--0--0--|--0--0--0--0--0--0--0--0--0--0--0--|
--0--0--0--0--0--0--0--0--0--0--0--|--0--0--0--0--0--0--0--0--0--0--0--|


                                      5:20                                
  PM    PM PM PM PM PM PM PM PM       PM      PM PM PM PM PM PM PM PM     
  E  E  E  S  S  S  S  S  S  E  E     E    E  E  S  S  S  S  S  S  E  E   
-----------------------------------|-------------------------------------|
-----------------------------------|-------------------------------------|
-----------------------------------|-------------------------------------|
--------------------------------0--|----------------------------------0--|
--0--0--0--0--0--0--0--0--0--0--0--|--0----0--0--0--0--0--0--0--0--0--0--|
--0--0--0--0--0--0--0--0--0--0--0--|--0----0--0--0--0--0--0--0--0--0--0--|


  PM    PM PM PM PM PM PM PM PM       PM    PM PM PM PM PM PM PM PM     
  E  E  E  S  S  S  S  S  S  E  E     E  E  E  S  S  S  S  S  S  E  E   
-----------------------------------|-----------------------------------|
-----------------------------------|-----------------------------------|
-----------------------------------|-----------------------------------|
--------------------------------0--|--------------------------------0--|
--0--0--0--0--0--0--0--0--0--0--0--|--0--0--0--0--0--0--0--0--0--0--0--|
--0--0--0--0--0--0--0--0--0--0--0--|--0--0--0--0--0--0--0--0--0--0--0--|


                                      5:27                                
  PM    PM PM PM PM PM PM PM PM       PM      PM PM PM PM PM PM PM PM     
  E  E  E  S  S  S  S  S  S  E  E     E    E  E  S  S  S  S  S  S  E  E   
-----------------------------------|-------------------------------------|
-----------------------------------|-------------------------------------|
-----------------------------------|-------------------------------------|
--------------------------------0--|----------------------------------0--|
--0--0--0--0--0--0--0--0--0--0--0--|--0----0--0--0--0--0--0--0--0--0--0--|
--0--0--0--0--0--0--0--0--0--0--0--|--0----0--0--0--0--0--0--0--0--0--0--|


  PM    PM PM PM PM PM PM PM PM       PM    PM PM PM PM PM PM PM PM     
  E  E  E  S  S  S  S  S  S  E  E     E  E  E  S  S  S  S  S  S  E  E   
-----------------------------------|-----------------------------------|
-----------------------------------|-----------------------------------|
-----------------------------------|-----------------------------------|
--------------------------------0--|--------------------------------0--|
--0--0--0--0--0--0--0--0--0--0--0--|--0--0--0--0--0--0--0--0--0--0--0--|
--0--0--0--0--0--0--0--0--0--0--0--|--0--0--0--0--0--0--0--0--0--0--0--|


                                      5:34                                
  PM    PM PM PM PM PM PM PM PM       PM      PM PM PM PM PM PM PM PM     
  E  E  E  S  S  S  S  S  S  E  E     E    E  E  S  S  S  S  S  S  E  E   
-----------------------------------|-------------------------------------|
-----------------------------------|-------------------------------------|
-----------------------------------|-------------------------------------|
--------------------------------0--|----------------------------------0--|
--0--0--0--0--0--0--0--0--0--0--0--|--0----0--0--0--0--0--0--0--0--0--0--|
--0--0--0--0--0--0--0--0--0--0--0--|--0----0--0--0--0--0--0--0--0--0--0--|


  PM    PM PM PM PM PM PM PM PM       PM    PM PM PM PM PM PM PM PM     
  E  E  E  S  S  S  S  S  S  E  E     E  E  E  S  S  S  S  S  S  E  E   
-----------------------------------|-----------------------------------|
-----------------------------------|-----------------------------------|
-----------------------------------|-----------------------------------|
--------------------------------0--|--------------------------------0--|
--0--0--0--0--0--0--0--0--0--0--0--|--0--0--0--0--0--0--0--0--0--0--0--|
--0--0--0--0--0--0--0--0--0--0--0--|--0--0--0--0--0--0--0--0--0--0--0--|


                                      5:41                                
  PM    PM PM PM PM PM PM PM PM       PM      PM PM PM PM PM PM PM PM     
  E  E  E  S  S  S  S  S  S  E  E     E    E  E  S  S  S  S  S  S  E  E   
-----------------------------------|-------------------------------------|
-----------------------------------|-------------------------------------|
-----------------------------------|-------------------------------------|
--------------------------------0--|----------------------------------0--|
--0--0--0--0--0--0--0--0--0--0--0--|--0----0--0--0--0--0--0--0--0--0--0--|
--0--0--0--0--0--0--0--0--0--0--0--|--0----0--0--0--0--0--0--0--0--0--0--|


  PM    PM PM PM PM PM PM PM PM       PM    PM PM PM PM PM PM PM PM     
  E  E  E  S  S  S  S  S  S  E  E     E  E  E  S  S  S  S  S  S  E  E   
-----------------------------------|-----------------------------------|
-----------------------------------|-----------------------------------|
-----------------------------------|-----------------------------------|
--------------------------------0--|--------------------------------0--|
--0--0--0--0--0--0--0--0--0--0--0--|--0--0--0--0--0--0--0--0--0--0--0--|
--0--0--0--0--0--0--0--0--0--0--0--|--0--0--0--0--0--0--0--0--0--0--0--|


                                      5:48                                
  PM    PM PM PM PM PM PM PM PM       PM      PM PM PM PM PM PM PM PM     
  E  E  E  S  S  S  S  S  S  E  E     E    E  E  S  S  S  S  S  S  E  E   
-----------------------------------|-------------------------------------|
-----------------------------------|-------------------------------------|
-----------------------------------|-------------------------------------|
--------------------------------0--|----------------------------------0--|
--0--0--0--0--0--0--0--0--0--0--0--|--0----0--0--0--0--0--0--0--0--0--0--|
--0--0--0--0--0--0--0--0--0--0--0--|--0----0--0--0--0--0--0--0--0--0--0--|


  PM    PM PM PM PM PM PM PM PM       PM    PM PM PM PM PM PM PM PM     
  E  E  E  S  S  S  S  S  S  E  E     E  E  E  S  S  S  S  S  S  E  E   
-----------------------------------|-----------------------------------|
-----------------------------------|-----------------------------------|
-----------------------------------|-----------------------------------|
--------------------------------0--|--------------------------------0--|
--0--0--0--0--0--0--0--0--0--0--0--|--0--0--0--0--0--0--0--0--0--0--0--|
--0--0--0--0--0--0--0--0--0--0--0--|--0--0--0--0--0--0--0--0--0--0--0--|


                                      5:56              
  PM    PM PM PM PM PM PM PM PM                         
  E  E  E  S  S  S  S  S  S  E  E     W                 
-----------------------------------|-------------------|
-----------------------------------|-------------------|
-----------------------------------|-------------------|
--------------------------------0--|-------------------|
--0--0--0--0--0--0--0--0--0--0--0--|-------------------|
--0--0--0--0--0--0--0--0--0--0--0--|-------------------|


  5:57                                                        
  PM      PM    PM    PM       PM    PM    PM    PM PM PM PM  
  E    E  E  E  E  E  E  E     E  E  E  E  E  E  S  S  S  S   
----------------------------|--------------------------------|
----------------------------|--------------------------------|
----------------------------|--------------------------------|
----------------------------|--------------------------------|
--0----0--0--0--0--0--0--0--|--0--0--0--0--0--0--0--0--0--0--|
--0----0--0--0--0--0--0--0--|--0--0--0--0--0--0--0--0--0--0--|


          PM PM    PM PM PM PM PM PM            PM PM    PM PM PM PM PM PM  
  E    E  E  E  E  S  S  S  S  S  S     E    E  E  E  E  S  S  S  S  S  S   
-------------------------------------|-------------------------------------|
-------------------------------------|-------------------------------------|
-------------------------------------|-------------------------------------|
--7s--12-----------------------------|--7s--12-----------------------------|
--7s--12--0--0--0--0--0--0--0--0--0--|--7s--12--0--0--0--0--0--0--0--0--0--|
--7s--12--0--0--0--0--0--0--0--0--0--|--7s--12--0--0--0--0--0--0--0--0--0--|


  6:04                                                        
  PM      PM    PM    PM       PM    PM    PM    PM PM PM PM  
  E    E  E  E  E  E  E  E     E  E  E  E  E  E  S  S  S  S   
----------------------------|--------------------------------|
----------------------------|--------------------------------|
----------------------------|--------------------------------|
----------------------------|--------------------------------|
--0----0--0--0--0--0--0--0--|--0--0--0--0--0--0--0--0--0--0--|
--0----0--0--0--0--0--0--0--|--0--0--0--0--0--0--0--0--0--0--|


          PM PM      PM PM PM PM            PM PM      PM PM PM PM  
  E    E  E  E  Q    S  S  S  S     E    E  E  E  Q    S  S  S  S   
---------------------------------|---------------------------------|
---------------------------------|---------------------------------|
---------------------------------|---------------------------------|
--7s--12-------------------------|--7s--12-------------------------|
--7s--12--0--0--0----0--0--0--0--|--7s--12--0--0--0----0--0--0--0--|
--7s--12--0--0--0----0--0--0--0--|--7s--12--0--0--0----0--0--0--0--|


  6:10                                                        
  PM      PM    PM    PM       PM    PM    PM    PM PM PM PM  
  E    E  E  E  E  E  E  E     E  E  E  E  E  E  S  S  S  S   
----------------------------|--------------------------------|
----------------------------|--------------------------------|
----------------------------|--------------------------------|
----------------------------|--------------------------------|
--0----0--0--0--0--0--0--0--|--0--0--0--0--0--0--0--0--0--0--|
--0----0--0--0--0--0--0--0--|--0--0--0--0--0--0--0--0--0--0--|


          PM PM                     PM PM           
  E    E  E  E  H           E    E  E  E  H         
-------------------------|-------------------------|
-------------------------|-------------------------|
-------------------------|-------------------------|
--7s--12-----------------|--7s--12-----------------|
--7s--12--0--0--0--------|--7s--12--0--0--0--------|
--7s--12--0--0--0--------|--7s--12--0--0--0--------|


  6:17                                                        
  PM      PM    PM    PM       PM    PM    PM    PM PM PM PM  
  E    E  E  E  E  E  E  E     E  E  E  E  E  E  S  S  S  S   
----------------------------|--------------------------------|
----------------------------|--------------------------------|
----------------------------|--------------------------------|
----------------------------|--------------------------------|
--0----0--0--0--0--0--0--0--|--0--0--0--0--0--0--0--0--0--0--|
--0----0--0--0--0--0--0--0--|--0--0--0--0--0--0--0--0--0--0--|


          PM PM      PM PM PM PM            PM PM      PM PM PM PM  
  E    E  E  E  Q    S  S  S  S     E    E  E  E  Q    S  S  S  S   
---------------------------------|---------------------------------|
---------------------------------|---------------------------------|
---------------------------------|---------------------------------|
--7s--12-------------------------|--7s--12-------------------------|
--7s--12--0--0--0----0--0--0--0--|--7s--12--0--0--0----0--0--0--0--|
--7s--12--0--0--0----0--0--0--0--|--7s--12--0--0--0----0--0--0--0--|


  6:24                                                
       PM PM PM PM PM PM       PM PM                  
  Q    E  E  E  E  E  E     E  E  E  E  E  E  E   E   
-------------------------|---------------------------|
-------------------------|---------------------------|
-------------------------|---------------------------|
-------------------------|---------------------------|
--0----0--0--0--0--0--0--|--0--0--0--1-----1-----10--|
--0----0--0--0--0--0--0--|--0--0--0--1-----1-----10--|


   PM  PM  PM  PM  PM  PM  PM  PM                PM  PM  PM  PM  PM  PM  
   E   E   E   E   E   E   E   E      S   S  E   E   E   E   E   E   E   
----------------------------------|-------------------------------------|
----------------------------------|-------------------------------------|
----------------------------------|-------------------------------------|
----------------------------------|-------------------------------------|
--10--10--10--10--10--10--10--10--|---Ls-11-11--11--11--11--11--11--11--|
--10--10--10--10--10--10--10--10--|---Ls-11-11--11--11--11--11--11--11--|


  6:30                                                         
       PM PM PM PM PM PM PM PM PM       PM PM                  
  Q    S  S  E  S  S  E  S  S  E     E  E  E  E  E  E  E   E   
----------------------------------|---------------------------|
----------------------------------|---------------------------|
----------------------------------|---------------------------|
----------------------------------|---------------------------|
--0----0--0--0--0--0--0--0--0--0--|--0--0--0--1-----1-----10--|
--0----0--0--0--0--0--0--0--0--0--|--0--0--0--1-----1-----10--|


   PM  PM  PM  PM  PM  PM  PM  PM                PM  PM  PM  PM  PM  PM  
   E   E   E   E   E   E   E   E      S   S  E   E   E   E   E   E   E   
----------------------------------|-------------------------------------|
----------------------------------|-------------------------------------|
----------------------------------|-------------------------------------|
----------------------------------|-------------------------------------|
--10--10--10--10--10--10--10--10--|---Ls-11-11--11--11--11--11--11--11--|
--10--10--10--10--10--10--10--10--|---Ls-11-11--11--11--11--11--11--11--|


  3:36                                                
       PM PM PM PM PM PM       PM PM                  
  Q    E  E  E  E  E  E     E  E  E  E  E  E  E   E   
-------------------------|---------------------------|
-------------------------|---------------------------|
-------------------------|---------------------------|
-------------------------|---------------------------|
--0----0--0--0--0--0--0--|--0--0--0--1-----1-----10--|
--0----0--0--0--0--0--0--|--0--0--0--1-----1-----10--|


   PM  PM  PM  PM  PM  PM  PM  PM                PM  PM  PM  PM  PM  PM  
   E   E   E   E   E   E   E   E      S   S  E   E   E   E   E   E   E   
----------------------------------|-------------------------------------|
----------------------------------|-------------------------------------|
----------------------------------|-------------------------------------|
----------------------------------|-------------------------------------|
--10--10--10--10--10--10--10--10--|---Ls-11-11--11--11--11--11--11--11--|
--10--10--10--10--10--10--10--10--|---Ls-11-11--11--11--11--11--11--11--|


  6:42                                                         
       PM PM PM PM PM PM PM PM PM       PM PM                  
  Q    S  S  E  S  S  E  S  S  E     E  E  E  E  E  E  E   E   
----------------------------------|---------------------------|
----------------------------------|---------------------------|
----------------------------------|---------------------------|
----------------------------------|---------------------------|
--0----0--0--0--0--0--0--0--0--0--|--0--0--0--1-----1-----10--|
--0----0--0--0--0--0--0--0--0--0--|--0--0--0--1-----1-----10--|


   PM  PM  PM  PM  PM  PM  PM  PM                PM  PM  PM  PM  PM  PM  
   E   E   E   E   E   E   E   E      S   S  E   E   E   E   E   E   E   
----------------------------------|-------------------------------------|
----------------------------------|-------------------------------------|
----------------------------------|-------------------------------------|
----------------------------------|-------------------------------------|
--10--10--10--10--10--10--10--10--|---Ls-11-11--11--11--11--11--11--11--|
--10--10--10--10--10--10--10--10--|---Ls-11-11--11--11--11--11--11--11--|


  6:48                                                        
  PM      PM    PM    PM       PM    PM    PM    PM PM PM PM  
  E    E  E  E  E  E  E  E     E  E  E  E  E  E  S  S  S  S   
----------------------------|--------------------------------|
----------------------------|--------------------------------|
----------------------------|--------------------------------|
----------------------------|--------------------------------|
--0----0--0--0--0--0--0--0--|--0--0--0--0--0--0--0--0--0--0--|
--0----0--0--0--0--0--0--0--|--0--0--0--0--0--0--0--0--0--0--|


          PM PM    PM PM PM PM PM PM            PM PM    PM PM PM PM PM PM  
  E    E  E  E  E  S  S  S  S  S  S     E    E  E  E  E  S  S  S  S  S  S   
-------------------------------------|-------------------------------------|
-------------------------------------|-------------------------------------|
-------------------------------------|-------------------------------------|
--7s--12-----------------------------|--7s--12-----------------------------|
--7s--12--0--0--0--0--0--0--0--0--0--|--7s--12--0--0--0--0--0--0--0--0--0--|
--7s--12--0--0--0--0--0--0--0--0--0--|--7s--12--0--0--0--0--0--0--0--0--0--|


  6:55                                                        
  PM      PM    PM    PM       PM    PM    PM    PM PM PM PM  
  E    E  E  E  E  E  E  E     E  E  E  E  E  E  S  S  S  S   
----------------------------|--------------------------------|
----------------------------|--------------------------------|
----------------------------|--------------------------------|
----------------------------|--------------------------------|
--0----0--0--0--0--0--0--0--|--0--0--0--0--0--0--0--0--0--0--|
--0----0--0--0--0--0--0--0--|--0--0--0--0--0--0--0--0--0--0--|


          PM PM      PM PM PM PM            PM PM      PM PM PM PM  
  E    E  E  E  Q    S  S  S  S     E    E  E  E  Q    S  S  S  S   
---------------------------------|---------------------------------|
---------------------------------|---------------------------------|
---------------------------------|---------------------------------|
--7s--12-------------------------|--7s--12-------------------------|
--7s--12--0--0--0----0--0--0--0--|--7s--12--0--0--0----0--0--0--0--|
--7s--12--0--0--0----0--0--0--0--|--7s--12--0--0--0----0--0--0--0--|


  7:01                                                        
  PM      PM    PM    PM       PM    PM    PM    PM PM PM PM  
  E    E  E  E  E  E  E  E     E  E  E  E  E  E  S  S  S  S   
----------------------------|--------------------------------|
----------------------------|--------------------------------|
----------------------------|--------------------------------|
----------------------------|--------------------------------|
--0----0--0--0--0--0--0--0--|--0--0--0--0--0--0--0--0--0--0--|
--0----0--0--0--0--0--0--0--|--0--0--0--0--0--0--0--0--0--0--|


          PM PM                     PM PM           
  E    E  E  E  H           E    E  E  E  H         
-------------------------|-------------------------|
-------------------------|-------------------------|
-------------------------|-------------------------|
--7s--12-----------------|--7s--12-----------------|
--7s--12--0--0--0--------|--7s--12--0--0--0--------|
--7s--12--0--0--0--------|--7s--12--0--0--0--------|


  7:08                                                        
  PM      PM    PM    PM       PM    PM    PM    PM PM PM PM  
  E    E  E  E  E  E  E  E     E  E  E  E  E  E  S  S  S  S   
----------------------------|--------------------------------|
----------------------------|--------------------------------|
----------------------------|--------------------------------|
----------------------------|--------------------------------|
--0----0--0--0--0--0--0--0--|--0--0--0--0--0--0--0--0--0--0--|
--0----0--0--0--0--0--0--0--|--0--0--0--0--0--0--0--0--0--0--|


          PM PM      PM PM PM PM            PM PM      PM PM PM PM  
  E    E  E  E  Q    S  S  S  S     E    E  E  E  Q    S  S  S  S   
---------------------------------|---------------------------------|
---------------------------------|---------------------------------|
---------------------------------|---------------------------------|
--7s--12-------------------------|--7s--12-------------------------|
--7s--12--0--0--0----0--0--0--0--|--7s--12--0--0--0----0--0--0--0--|
--7s--12--0--0--0----0--0--0--0--|--7s--12--0--0--0----0--0--0--0--|


  7:14                                                                  
       PM PM PM PM   PM PM PM PM PM       PM PM PM PM   PM PM PM PM PM  
  E    E  E  E  E  S S  S  S  S  S     E  E  E  E  E  S S  S  S  S  S   
------------------------------------|----------------------------------|
------------------------------------|----------------------------------|
------------------------------------|----------------------------------|
------------------------------------|----------------------------------|
--1----1--1--1--1--1-1--1--1--1--1--|--1--1--1--1--1--1-1--1--1--1--1--|
--1----1--1--1--1--1-1--1--1--1--1--|--1--1--1--1--1--1-1--1--1--1--1--|


                                                     7:21                   
     PM PM PM PM   PM                                     PM PM PM PM       
  E  E  E  E  E  S S  Q       Q    Q    Q    Q       Q    E  E  E  E  Q     
---------------------------|----------------------|------------------------|
---------------------------|----------------------|------------------------|
---------------------------|----------------------|------------------------|
----------------------0----|--4----0----3----0----|--0----------------0----|
--1--1--1--1--1--1-1--0----|--4----0----3----0----|--0----0--0--0--0--0----|
--1--1--1--1--1--1-1--0----|--4----0----3----0----|--0----0--0--0--0--0----|


                              PM PM PM PM                              
  Q    Q    Q    Q       Q    E  E  E  E  Q       Q    Q    Q    Q     
----------------------|------------------------|----------------------|
----------------------|------------------------|----------------------|
----------------------|------------------------|----------------------|
--4----0----3----0----|--0----------------0----|--4----0----3----0----|
--4----0----3----0----|--0----0--0--0--0--0----|--4----0----3----0----|
--4----0----3----0----|--0----0--0--0--0--0----|--4----0----3----0----|


  7:27                                                                         
       PM PM PM PM PM       PM PM PM PM PM PM PM       PM PM PM PM PM PM       
  Q    E  E  E  E  E  E     E  E  E  E  E  E  E  E     E  E  E  E  E  E  Q     
-------------------------|--------------------------|-------------------------|
-------------------------|--------------------------|-------------------------|
-------------------------|--------------------------|-------------------------|
-------------------------|--------------------------|--------------------0----|
--1----1--1--1--1--1--1--|--1--1--1--1--1--1--1--1--|--1--1--1--1--1--1--0----|
--1----1--1--1--1--1--1--|--1--1--1--1--1--1--1--1--|--1--1--1--1--1--1--0----|


                         7:34                                        
  Q    Q    Q    Q       Q    Q    Q    Q       Q    Q    Q    Q     
----------------------|----------------------|----------------------|
----------------------|----------------------|----------------------|
----------------------|----------------------|----------------------|
--4----0----3----0----|--0----0----0----0----|--4----0----3----0----|
--4----0----3----0----|--0----0----0----0----|--4----0----3----0----|
--4----0----3----0----|--0----0----0----0----|--4----0----3----0----|


                                                7:41                    
                                                     PM PM PM PM PM     
  Q    Q    Q    Q       Q    Q    Q    Q       Q    E  E  E  E  E  E   
----------------------|----------------------|-------------------------|
----------------------|----------------------|-------------------------|
----------------------|----------------------|-------------------------|
--0----0----0----0----|--4----0----3----0----|-------------------------|
--0----0----0----0----|--4----0----3----0----|--1----1--1--1--1--1--1--|
--0----0----0----0----|--4----0----3----0----|--1----1--1--1--1--1--1--|


  PM PM PM PM PM PM PM       PM PM PM PM PM PM                              
  E  E  E  E  E  E  E  E     E  E  E  E  E  E  Q       Q    Q    Q    Q     
--------------------------|-------------------------|----------------------|
--------------------------|-------------------------|----------------------|
--------------------------|-------------------------|----------------------|
--------------------------|--------------------0----|--4----0----3----0----|
--1--1--1--1--1--1--1--1--|--1--1--1--1--1--1--0----|--4----0----3----0----|
--1--1--1--1--1--1--1--1--|--1--1--1--1--1--1--0----|--4----0----3----0----|


  7:47                                                               
  Q    Q    Q    Q       Q    Q    Q    Q       Q    Q    Q    Q     
----------------------|----------------------|----------------------|
----------------------|----------------------|----------------------|
----------------------|----------------------|----------------------|
--0----0----0----0----|--4----0----3----0----|--0----0----0----0----|
--0----0----0----0----|--4----0----3----0----|--0----0----0----0----|
--0----0----0----0----|--4----0----3----0----|--0----0----0----0----|


                         7:54                                               
                              PM PM PM PM PM       PM PM PM PM PM PM PM     
  Q    Q    Q    Q       Q    E  E  E  E  E  E     E  E  E  E  E  E  E  E   
----------------------|-------------------------|--------------------------|
----------------------|-------------------------|--------------------------|
----------------------|-------------------------|--------------------------|
--4----0----3----0----|-------------------------|--------------------------|
--4----0----3----0----|--1----1--1--1--1--1--1--|--1--1--1--1--1--1--1--1--|
--4----0----3----0----|--1----1--1--1--1--1--1--|--1--1--1--1--1--1--1--1--|


                                                   8:01                 
  PM PM PM PM PM PM                                                     
  E  E  E  E  E  E  Q       Q    Q    Q    Q       Q    Q    Q    Q     
-------------------------|----------------------|----------------------|
-------------------------|----------------------|----------------------|
-------------------------|----------------------|----------------------|
--------------------0----|--4----0----3----0----|--0----0----0----0----|
--1--1--1--1--1--1--0----|--4----0----3----0----|--0----0----0----0----|
--1--1--1--1--1--1--0----|--4----0----3----0----|--0----0----0----0----|


  Q    Q    Q    Q       Q    Q    Q    Q       Q    Q    Q    Q     
----------------------|----------------------|----------------------|
----------------------|----------------------|----------------------|
----------------------|----------------------|----------------------|
--4----0----3----0----|--0----0----0----0----|--4----0----3----0----|
--4----0----3----0----|--0----0----0----0----|--4----0----3----0----|
--4----0----3----0----|--0----0----0----0----|--4----0----3----0----|


  8:07                                                                         
       PM PM PM PM PM       PM PM PM PM PM PM PM            PM PM PM PM PM     
  Q    E  E  E  E  E  E     E  E  E  E  E  E  E  E     Q    E  E  E  E  E  E   
-------------------------|--------------------------|-------------------------|
-------------------------|--------------------------|-------------------------|
-------------------------|--------------------------|-------------------------|
-------------------------|--------------------------|-------------------------|
--1----1--1--1--1--1--1--|--1--1--1--1--1--1--1--1--|--1----1--1--1--1--1--1--|
--1----1--1--1--1--1--1--|--1--1--1--1--1--1--1--1--|--1----1--1--1--1--1--1--|


                             8:14                                               
  PM PM PM PM PM PM PM            PM PM PM PM PM       PM PM PM PM PM PM PM     
  E  E  E  E  E  E  E  E     Q    E  E  E  E  E  E     E  E  E  E  E  E  E  E   
--------------------------|-------------------------|--------------------------|
--------------------------|-------------------------|--------------------------|
--------------------------|-------------------------|--------------------------|
--------------------------|-------------------------|--------------------------|
--1--1--1--1--1--1--1--1--|--1----1--1--1--1--1--1--|--1--1--1--1--1--1--1--1--|
--1--1--1--1--1--1--1--1--|--1----1--1--1--1--1--1--|--1--1--1--1--1--1--1--1--|


       PM PM PM PM PM       PM PM PM PM PM PM PM      
  Q    E  E  E  E  E  E     E  E  E  E  E  E  E  E    
-------------------------|--------------------------||
-------------------------|--------------------------||
-------------------------|--------------------------||
-------------------------|--------------------------||
--1----1--1--1--1--1--1--|--1--1--1--1--1--1--1--1--||
--1----1--1--1--1--1--1--|--1--1--1--1--1--1--1--1--||




Duration Legend
---------------
W - whole
H - half
Q - quarter
E - 8th
S - 16th
T - 32nd
X - 64th
. - note dotted
|-n-|  - n-tuplets


Tablature Legend
----------------
L - tied note
x - dead note
g - grace note
(n) - ghost note
> - accentuded note
NH - natural harmonic
AH - artificial harmonic
TH - tapped harmonic
SH - semi harmonic
PH - pitch harmonic
h - hammer on
p - pull off
b - bend
br - bendRelease
pb - preBend
pbr - preBendRelease
brb - bendReleaseBend
\n/ - tremolo bar dip
\n - tremolo bar dive
-/n - tremolo bar Release up
/n\ - tremolo bar inverted dip
/n - tremolo bar return
-\n - tremolo bar Release down
S - shift slide
s - legato slide
/ -  slide into from below or out of upwards
\ -  slide into from above or out of downwards
~ - vibrato
W - wide vibrato
tr - trill
TP - tremolo picking
T - tapping
S - slap
P - pop
< - fade in
^ - brush up
v - brush down
Tap to rate this tab
 
# A B C D E F G H I J K L M N O P Q R S T U V W X Y Z